Aerosmith — Dude Look Like A Lady (tab)

Intro:

A5
---------------------|
---------------------|
|-9--9----9--9----9--9----9--9---|
|-7--7----7--7----7--7----7--7---|
---------------------|
---------------------|

A5 G5 A5 D5 G5 D5
-------------------------------| Repeat this Riff
|-10-10-10--8-8--10--7-7-7-7-8-7-----------| 4X, until the horns
|--9--9--9--7-7---9--7-7-7-7-7-7-----------| start, then repeat
|--7--7--7--5-5---7--7-7-7-7-7-7-----------| this 4 more times.
-------------------------------|
-------------------------------|
Dude Look like a lady

Once the lyrics start play the same riff over and over again. Also
repeat it with the chorus. After chorus and verses play this.

A5 G5 A5 F5
-------------------------------------------------|
|-10-10-10--8--8---8--10------6------------------------------|
|--9--9--9--7--7---7---9------5------------------------------|
|--7--7--7--5--5---5---7------3------------------------------|
-------------------------------------------------|
-------------------------------------------------|
Baby let me follow you down. Let me take a peak dear.

Right before the solo it goes like this...

D5 C5 D5 E5 G5
Baby let me follow you down.. Do me, do me, do me, sue me.