Aerosmith — Face

chords used:
A: 002220
A5: 577xxx
B: 024440
Bm: 024430
B5: x244xx
C: 032010
C5: x355xx
D: 000232
D9: 000230
Em: 022000
F5#: 244xxx
G: 320003
G5: 355xxx


Intro:

Em D B5 A B5 (x2, then...) Em

(little thing played at the A chord)
e-------------------
B-------------------
G----2--------------
D------2p0----------
A--0--------2-------
E-------------------


G Bm Em
BEHIND THE WALLS OF MY TEMPTATION
G Bm Em
THAT´S WHEN IT ALL BEGAN

C G D
SHE TIE ME UP WITH MY FRUSTRATION
C G D D9 D
AND SNAPPED MY RUBBER BAND-AH
G Bm Em
I REMEMBER A SWEET PATCHOULI
G Bm Em
SHE ABSOLUTELY ADORE
C G D
IT´S ALL ABOUT WITH WHO YOUR HANGIN´
C G D D9 D B
AND SHE GAVE ME TOO MUCH ROPE


Chorus:
Em G D
SHE DA QUEEN OF MY DELUSION
C G D
SHE MY ZEN FROM WAY BACK WHEN
C G D
AND THE CAUSE OF MY CONFUSION
Em
IS THE FACE WITHOUT A NAME


G Bm Em
SHE LIVED ON LUCKY CHARMS AND COFFEE
G Bm Em
AND CRACKER JACK SURPRISE
C G D
SHE HAD ME ALL REBORN AND THEN
C G D D9 D B
SHE KILLED ME WITH HER EYES



Em G D
SHE´S THE QUEEN OF MY DELUSION
C G D
SHE MY ZEN FROM WAY BACK WHEN
C G D
AND THE CAUSE OF MY CONFUSION
Em F5# G5 A5 B5 C5
IS THE FACE WITHOUT A NAME

B
TRYIN´ AN GET LITTLE BIT
THERE´S NOTHING WRONG WITH IT
IF NO ONE SEE´S YA
A
WHAT YA GONNA SAY
WHEN I DON´T KNOW HER NAME
I´LL BLAME IT ON THE DAMNED AMNESIA
C
FORGOTTEN LOVE´S NO DOUBT A WASTE
D Em F#5 A5 B5 C5
WHAT´S IN A NAME WITHOUT A FACE

G Bm Em
WE DID A LITTLE NIP AND TUCK THEN
G Bm Em
SHE WHISPERED TO MY BRAIN
C G D
I asked her if somethin´ AND SHE SAID LETS fuck
B
THEN I FORGOT HER NAME


--Chorus till end--
(with Em as last chord)

-----------------------------------------------------------------------
Side notes:

this is played during chorus (listen carefully)

e----12-----------------------------
B--------15--12---------------------
G----------------14--12-------------
D------------------------14---------
A-----------------------------------
E-----------------------------------