Aerosmith — Falling In Love (tab)

Intro: F5 and G5

riff 1- turns into:
E---------------------------------------------------|
B---------3----------3----------3-----------3---|--------3------|
G------2----------2----------0-----------2------|-----0---------|
D---0--------------------------------0--------------|
A-------------1----------3----------------------|--3------------|
E------------------------------------------------3--|

F5 and G5, followed by verse, which looks like this:

guitar 1(play in rhythm; basic pattern tabbed)-
Gm
E---3---3---3-------3-----|
B---3---3---3-------3-----|
G---3---3---3---3---3-----|
D---------------5---------|
A---------------5---------|
E-------------------------|

guitar 2 is barely audible at first, but eventually this is played:
guitar 2-
E----------------------------15~~~~~~~~~~~~~~~~--|
B------------------------15----------------------|
G-------13~~~~~~~~~~-----------------------------|
D---12-------------------------------------------|
A------------------------------------------------|
E------------------------------------------------|

bridge-
E-------------------------------------------------------------|
B--9-------11--11--11---------9-------11-------11-----9-------|
G--9-------11--11--11--11b--r-9-------11-------11b--r-9-------|
D----10-10-----10--10-----------10-10----10-10----------10-10-|
A-------------------------------------------------------------|
E-------------------------------------------------------------|

E---------------------------------------------------|
B--11--------11-----9-------------------------------|
G--11--------11b--r-9---------11-b-11--11----11b-r--|
D-----10-10-----------10-(10)-------------10--------|
A---------------------------------------------------|
E---------------------------------------------------|

That`s not all of it, but it`s enough for now.

I tabbed all of the solo that I could, which ended up being most of it.
There is a part in there that`s too fast for me. You`ll either have to
figure it out yourself or,what I recommend,buy the tab book(when it
comes out, that is).

solo-
E---------------------------------------------------------------|
B--15----15----15----15----15----15----15----15----15----15-----|
G--18b-r-18b-r-18b-r-18b-r-18b-r-18b-r-18b-r-18b-r-18b-r-18b-r--|
D---------------------------------------------------------------|
A---------------------------------------------------------------|
E---------------------------------------------------------------|

E---------------------------------------------------------------|
B-15----15------------------------------------------------------|
G-18b-r-18b-r-18b---r---------1820-----18b-r----18b-r----------|
D---------------------15------------18--------17-------15--(15)-|
A---------------------------------------------------------------|
E---------------------------------------------------------------|

E-------------------------------------------|
B--15~~~-13--15-------15--------------------|
G---------------13----------13b-r----13-13--|
D------------------15----15-------15--------|
A-------------------------------------------|
E-------------------------------------------|...

This is where I get lost. When it slows down it looks like this:
full bend
E--15b--15r-13-15-13------21b--r----21b--r----21b--r----21b--r----21b--r|
B--------------------15/---------20--------20--------20--------20-------|
G-----------------------------------------------------------------------|
D-----------------------------------------------------------------------|
A-----------------------------------------------------------------------|
E-----------------------------------------------------------------------|


That`s it for now. Have fun with it.

transcribed by Bryson Meunier(meunier.1@osu.edu)

symbols used in transcription:
b = bend
r = release
= slide
~ = vibrato/feedback