Aerosmith — Home Tonight

Home Tonight

Intro: D - E - D - E

C#m F# A B E
Now it's time to say goodnight to you
C#m F# A B E
Now it's time to bid you sweet adieu
A Ab C#m
And maybe drink a cheers to yesterday
F#m B E
And maybe you'll drink those tears away
A Ab F#m
So baby don't let go, hold on real tight
F#5 Ab5 A5 B5 C#5 D E D E
Cause I'll be home tonight tonight

Solo:
C#m - F#m - A - E


first solo(distortion)-
E--------------------------------------------------|
B--9--------9----9--------9---------9--9-----------|
G--9--------9----9--------9---------9-11-9h11p9----|
D----10-10----10---10-10----10-10---------------10-|
A--------------------------------------------------|
E--------------------------------------------------|

E--------------------------------------------------|
B----------9-----------9-------------9-------------|
G-9--------9-----------9-11-11b-r~~~-9-11-11b-rp9--|
D---10-10----10-8-10-------------------------------|
A--------------------------------------------------|
E--------------------------------------------------|

E--------------------------------------------------|
B-----------------11b-r-p9-------------------------|
G-11b--r-b--r--11-11b-r-p9----9-11---11-11__/-11--|
D--------------------------10----------------------|
A--------------------------------------------------|
E--------------------------------------------------|

E--------------------------------------------------|
B--------------------------------------------------|
G-11-11-11__/-p9----9-11-9------9----9/8-8/6-6h8--|
D-----------------11---------11----10--------------|
A--------------------------------------------------|
E--------------------------------------------------|

E--------------------------------------------------|
B-------------------------------------------11-----|
G-6--8-8b-r-p6---6-3p0-------------8----11b----11r-|
D--------------8-------3p0----8-10---10------------|
A--------------------------3----------------------|
E--------------------------------------------------|

E------------------------------------------------------|
B--11-1113--13----------------------------------------|
G---------------16p15p13----13-11pxp9----9-5p3p0-------|
D------------------------15-----------10---------3-----|
A--------------------------------------------------6p3-|
E------------------------------------------------------|

symbols used in transcription:
h = hammer-on
p = pull-off
x = muted string(on the 10th fret in this case)
b = bend
r = release
_/ = lower pitch with whammy bar
/ = slide
~ = let ring