Aerosmith — Hoodoo Voodoo Medicine Man

Aerosmith, Hoodoo Voodoo Medicine Man.
Tabbed by mike, mikEman827@ultradave.com.

here's what i've tabbed. its the beginning and a little of the chorus. its pretty much played throughout the whole song, u'll get it. good luck, lol.

E|----------------------------------|
B|----------------------------------|
G|-----------------------4--2-------|
D|-------4--2---------4-------------|
A|----4------------4----------------|
E|-2------------2-------------------|


that's played over a bunch of times, u know that if u know the song. here's the verse

D|--444442---444442-----|
A|--444442---444442-----|
E|--222220---222220-----|

repeated 2wice for the chorus.

that's pretty much the song.

www.brizk.homestead.com

:: Ultimate Guitar Archive ::
http://www.ultimate-guitar.com