Aerosmith — I Don`t Want To Miss A Thing (btab)

~=let ring

Verse:
G---------------------------
D-0~------------------------
A----4~-2~---2----------0---
E----------2---2-2~-2h3---0-

Chorus:
G------------0~-2----
D-0~--------------0~-
A----4~-2~-2---------
E--------------------

Bridge:
G----------------------------------
D----------------------------0~----
A-3-3-----0-------3-3-3---------0~-
E-----3-3---1-1-1-------3-3-3------