Aerosmith — I Live In Conneticut

#-----------------------------------------------------------------------------#
#-- File created with Instab - http://www.pconline.com/~smcarey/instab.html --#
#-----------------------------------------------------------------------------#

Author/Artist: Aerosmith
Title: I Live in Conneticut
Album: Pandora's Box Disc 3
Transcribed by: Chris Valente
Email: AeroPilotOne@aol.com

Aerosmith, I live in Conneticut. It's on Pandora's Box.
dont bother with timing, just play fast and it'll come
together quicker then you think.

------------------------------------------------------------------------------|
----------0-------------------0-----------------------------------------------|
----------1-------------------1-----------------------------------------------|
--6-54---------------4-5/6---------------------------------------------------|
--7-65------4h5------5-6/7------4h5------------------------------------------|
--------0-------------------0-------------------------------------------------|
simple. just a slide then a hammer on for the beginning. This is played i

------------------------------------------------------------------------------|
------------------------------------------------------------------------------|
------------------------------------------------------------------------------|
--6-54-----------------------------------------------------------------------|
--7-65-----------------------------------------------------------------------|
---------5000-0500------------------------------------------------------------|
think 8 times before swithching to this riff. this 1s played 4 times.