Aerosmith — Kiss Your Past Goodbye

Kiss Your Past Goodbye
Aerosmith

INTRO
e---5---5---5---5-
B---5---5---5---5-
G-----------------
D---------0-------
A-0---0-------0---
E-----------------

e-----5-------5------5------5------------------------------
B-----5-------5------5------5------5-------5------5------5-
G----------------------------------6-------6------6------6-
D----------------------------------6-------6------6------6-
A--0-------0-------0-----0------4-------4------4------4----
E----------------------------------------------------------
Finders keepers losers weep down on forty second street

e------2--------2------2------2--------2-----2-----2-----2-
B------2--------2------2------2--------2-----2-----2-----2-
G------2--------2------2------2--------2-----2-----2-----2-
D--4---------4-------4------4--------3-----3-----3-----3---
A----------------------------------------------------------
E----------------------------------------------------------
oh barefoot children cryin' my oh my

chorus:
A D
Kiss your past goodbye
G F
Kiss your past goodbye
A D
Kiss your past goodbye
G F#
Kiss your past goodbye yeah yeah yeah