Aerosmith — Last Child (tab)

From: COOLEZ@aol.com

Last Child
By Aerosmith



Intro: Slowly
--------------------------|---------
|---------6--5---6--------|--------6--5--6--------|---------
|------7------------7-----|-----7-----------7-----|---------
|---7------------------7--|--7-----------------7--|--5------
--------------------------|---------
--------------------------|---------



---3-----3--------|--------3-----3--------|--------4--------
3-----5-----3-----|-----3-----5-----3-----|-----3-----5-----
------------------------------|--4--------------
---------------5--|--5-----------------5--------
------------------------------------
------------------------------------

Repeat with first
part of the verse.

4--------|--------4-----4--5--6--||--------|----
---3-----|-----3-----5--3--4--5--||--------|----
------4--|--4-----------4--5--6--||--------||*--------------
---------------------||--------||*--------------
---------------------||--------||---2--2--4-----
---------------------||--------|----


Repeat with the second part of the verse.

------------------------------------
------------------------------------
------------------*-----------------
------------------*||--7--7--7--7--7--7--7--7--7--7--7------
5--4--2--4--5--7---||--7--7--7--7--7--7--7--7--7--7--7------
-------------------||--5--5--5--5--5--5--5--5--5--5--5------


This is pretty much the whole song.
Sorry I don`t have the solo tabed out.
If you want it E-mail me.

Coolez@aol.com