Aerosmith — Lord Of The Thighs (tab)

guitar 1
----------------------------------------------------------
----------------------------------------------------------
----------------------------------------------------------
----------------------------------------------------------
|-3-3-3-3-3-3-3-3-3-3-3-3-3-3-3-3-3-3-3-3-3-3-3-3-3-3-3-3-3-3-3-3-3-3-
----------------------------------------------------------

guitar 2
----------------------------------------------------------
|-6-----4-------------------------------------------------------------
|-5-----3-----5-5-5-5-5-5-5-5----5-5-5-5-5-5-5-5----------------------
|-3-----1-----5-5-5-5-5-5-5-5----5-5-5-5-5-5-5-5----------------------
--3-3-3-3-3-3-3-3----3-3-3-3-3-3-3-3----------------------
----------------------------------------------------------

----------------------------------------------------------
|-6-----9-----8-8-8-8-8-8-8-8----8-8-8-8-8-8-8-8----------------------
|-5-----8-----7-7-7-7-7-7-7-7----7-7-7-7-7-7-7-7----------------------
|-3-----6-----5-5-5-5-5-5-5-5----5-5-5-5-5-5-5-5----------------------
----------------------------------------------------------
----------------------------------------------------------

piano:
----------------------------------------------------------
----------------------------------------------------------
----------------------------------------------------------
----------------------------------------------------------
|-3-3-----1-1-----3-3-----1-1-----3-3-----1-1-----3-3------1-1--------
----------------------------------------------------------

down to who knows who just to socialize
----------------------------------------------------------
----------------------------------------------------------
----------------------------------------------------------
|(5)-------------(3)--------------------------------------------------
|(3)3-3-3-3-3-3-3(1)1-1-1-1-1-1-1(6)-------------(5)------------------
---------------------(4)4-4-4-4-4-4-4(3)3-3-3-3-3-3-3-----

------------------------
------------------------
------------------------ repeat twice
|-3----3--1--3----3--1--3---1--3---- (2nd time play only power chords
|-3----3--1--3----3--1--3---1--3---- - as indicated in parentheses)
|-1----1----------1-----------------

you got the ways to make a man honey you got to understand
----------------------------------------------------------
----------------------------------------------------------
----------------------------------------------------------
-----------------------5----------------------------------
|-6---------------5--5-------------3----------------------------------
|-4---------------3--3------------------------------------------------

I`m your man child lord of the thighs
----------------------------------------------------------
----------------------------------------------------------
----------------------------------------------------------
-----------------------5----------------------------------
6------5-5-------------3----------------------------------
4------3-3------------------------------------------------

This first part tabbed by an anonymous tabber(possibly Denis Jacob or Mike Heasley,from whose archive this file was taken)

Solo parts:

1st solo-
E---8p6-----6-----6----------8----------8---8p6----6---------------|
B--------8-----8-----8--8b------8b--r-8---------8-----6--8--6b3---|
G------------------------------------------------------------------|
D------------------------------------------------------------------|
A------------------------------------------------------------------|
E------------------------------------------------------------------|

E-------------------------------------------------------------|
B-----------------------------------------------------6p5-----|
G------3--5-5b----------------3-----3-5b-r--5b-rp3------------|
D---5-----------------3h5--5-----5-----------------p3---------|
A-----------------3h5-----------------------------------------|
E-------------------------------------------------------------|

After that there are a bunch of slide licks that my lack of confidence with the slide prohibits me from tabbing. If you know this part, please send it to me and I`ll post it.

2nd solo(delay or heavy reverb)-
E----------8------------------8--------------8------------------8--|
B--------8----11b-11r-------8--------------8----11b-11r-------8----|
G---8h10---------------8h10-----------8h10---------------8h10------|
D---------------------------------10-------------------------------|
A------------------------------------------------------------------|
E------------------------------------------------------------------|

E------------8-10b-----------8--------------8----------------------|
B----------8---------------8----11--------8-----11---11--11p10p8---|
G-----8h10------------8h10-----------8h10--------------------------|
D-10---------------------------------------------------------------|
A------------------------------------------------------------------|
E------------------------------------------------------------------|

E------------------11-11b--r-11b--rp8----11p10p8----11b--11r--8----|
B-11p10p8-11p10p8---------------------11---------11-------------11-|
G------------------------------------------------------------------|
D------------------------------------------------------------------|
A------------------------------------------------------------------|
E------------------------------------------------------------------|

E-8--12b--r12---15--18p15-18b--------------------------------------|
B------------------------------------------------------------------|
G------------------------------17--19p17-19b-----------------17----|
D---------------------------------------------17--19p17-19b-----19r|
A------------------------------------------------------------------|
E------------------------------------------------------------------|

I don`t know the lead slide part at the end, but the rhythm goes something like this:
E------------------------------------------------------------------|
B------------------------------------------------------------------|
G------------------------------------------------------------------|
D------------------------------------------------------------------|
A-1--3--1-3-1-3-1-3--1-1-1-1-3--1-3-1-3-1-3-1-1-1-1----------------|

Continue with similar until fade out.

Many thanks to the original poster of the rhythm parts.
Thanks also to John O`Neil who provided the scales upon which I based my transcriptions as well as helpful advice about effects.
h = hammer-on
p = pull-off
b = bend
r = release
= slide