Aerosmith — Luv Lies

Aerosmith
Luv Lies

Tabbed by Andres (la_laker83@hotmail.com)

I hope this is ok, some parts are barely audible
Here it goes

INTRO
E-------------------------------------
B------12b14------12b14---------------
G-------------------------------------
D--11^--------11^--------11^----------
A----------------------------7b9r7----
E-------------------------------------

E-------------------------------------
B------12b14------12b14---------------
G-------------------------------------
D--11^--------11^--------11^----------
A----------------------------7--------
E-------------------------------------


Riff 1
E------------------------------
B------------------------------
G--------------9---------------
D--6--7-6-7-6-----9b11---r9----
A------------------------------
E------------------------------


Riff 2
E-------------------12-------12------------------
B--9--10-9-10-9-10-----12b14---------12b14-12----
G------------------------------------------------
D------------------------------------------------
A------------------------------------------------
E------------------------------------------------


Riff 3
E-------------------------
B--3-------------3--------
G-----5-3-5-3-5----3------
D--------------------5----
A-------------------------
E-------------------------


Riff 4
E--------15-------15-----------------------------
B--13b15----13b15-------9b11--11-11-11-11--r9----
G------------------------------------------------
D------------------------------------------------
A------------------------------------------------
E------------------------------------------------


SOLO
E-------------------------------------------------------------
B-------------------------------------------------------------
G-------------------------------------------------------------
D--11r9-9---7-9b11--9-9b11-9-9b11-9---11r9p7-7----------------
A-------------------------------------------------------------
E-------------------------------------------------------------

E--5----------------------------------------------------------
B-------------------------------------------------------------
G----4h6----4b6-6-6r4-2---------------2-----------------------
D-----------------------2h4-2-------------/7-7-7----7-7-7/----
A--------------------------------2^-0---0---------7-----------
E-------------------------------------------------------------

E--17b19r17--14-----------------14----------------------------
B----------------17b19----12b14----12b14r12-------------------
G-------------------------------------------------------------
D-------------------------------------------------------------
A-------------------------------------------------------------
E-------------------------------------------------------------

E--------12b14-12----12b14r12---------------------------------
B--10-------------------------12b14---------------------------
G-----11------------------------------------------------------
D-------------------------------------------------------------
A-------------------------------------------------------------
E-------------------------------------------------------------


Riff 5
E--------------------------------------------------------
B--10b12----14b15-15-15-15r--------15b17--r15---10b12----
G--------------------------------------------------------
D--------------------------------------------------------
A--------------------------------------------------------
E--------------------------------------------------------


Riff 6
E-------------------
B-------------------
G-------------------
D-------------------
A-------------------
E--1--3--4--6--8----


Riff 7
E--5---------------
B--5---7----------
G-------6----------
D-------------------
A-------------------
E-------------------


**Order and lyrics**

INTRO

VERSE
-Riff 7 played here
A F#m E Esus4 E
Oh... when you cross that line that you know you can't erase
A F#m E Esus4 E (Riff 1)
To fall in lust not love ain't no sin at all
A F#m E
And tell me when your wit'chor best friend's friend
Esus4 E
Do you still feel outta place

BRIDGE
Bm
No thanks I took that ride
G E C
God only knows I tried believin'

CHORUS
C Em
I imagine everyone sometimes
F
Will cross their heart and hope to die
A5 G
To tell I love you lies
C Em
I imagine everyone survives
F
For giving up all that you got
A5 G
To tell I love you lies

VERSE 2
-Also Riff 7
-Riff 2 somewhere in the middle
A F#m
The first time you look for love
E Esus4 E
You find you don't know jack... yeah
A F#m E Esus4 E
So much for mind games you play to win
A F#m
'Cuz first you lose your heart's desire
E Esus4 E
Then you get it back


BRIDGE
Bm
But ignorance ain't bliss
G E C
There's so much more behind the kiss... I'm feelin'

CHORUS

INTERLUDE
Bb F/A G (Riff 3)
When loneliness and paranoia feeds me
Bb F G
God help the person... fff... who needs me... yeaah

-Riff 4 right before solo

SOLO

BRIDGE
Bm G
If ignorance is bliss then take me off the list
E C
I'm leaving

CHORUS
-Riff 6 at the end of chorus

END
-Chords: C Am G
-Riff 5
-There's also another riff played with delay,
which I couldn't figure out because of the effect


Hope you like it!
Write to la_laker83@hotmail.com