Aerosmith — Make It (tab)

intro(guitar 1)-
E-----------------------------------------------|
B-----------7--7-----7---10--10--10------10-----|
G--------7--7--7--7--7---10--10--10--10--10-----|
D-----5--7--7--7--7--7---10--10--10--10--10--8-|
A--0--3--5-----5--5--5--------8---8---8---8--8-|
E--------------------------------------------6-|

After that riff, guitar two strums a Bb5

Continue with that pattern until you hear a change.
Then play something like this:

E-------------------------------------------|
B-------------------------------------------|
G-------------------------------------------|
D-------------------------------------------|
A--5-5-7--5-5-7--5-5-7--5-5-7--7-7-9--7-7-9-|
E--3-3-3--3-3-3--3-3-3--3-3-3--5-5-5--5-5-5-|

E----------|
B----------|
G----------|
D----------|
A-7-7-9--7-|
E-5-5-5--5-|

verse-

E------------|------------|------------|----------|
B------------|------------|------------|----------|
G--10--9--7--|--10--9--7--|--10--9--10-|-10--9--7-|
D--10--9--7--|--10--9--7--|--10--9--10-|-10--9--7-|
A---8--7--5--|---8--7--5--|---8--7---8-|--8--7--5-|
E------------|------------|------------|----------|

chorus(palm mute)-

Em-G5-G#5-A5 C5-D5-E5(slide back to Em)


the "bedwetter" part-

bed wetter pull...
E-------------------------------------------------|
B--6b--8-8--10-8------------------6b-5-6p5-6-810-|
G-----------------10-8----------------------------|
D-----------------------10-8----------------------|
A-----------------------------10------------------|
E-------------------------------------------------|

At the very end of that, guitar 2 plays this
E-----------------------|
B---8--10---------------|
G-----------------------|
D-----------8(1)-------|
A-----------------------|
E-----------------------|

guitar 1-
E-------------------------------------------------|
B--6b--8-8--10-8------------------56-6-5-5-3-----|
G-----------------10-8----------------------------|
D-----------------------10-8----------------------|
A-----------------------------10------------------|
E-------------------------------------------------|

Symbols used:
/ = slide
b = bend
p = pull-off