Aerosmith — Mama Kin (tab)

Intro                                                    
-------------------|----
-------------------|----
|---9--9--9--9--9--------------|----
|---9--9--9--9--9--|--9--9--9--9--9--|--7--7--7--7--7--|----
|---7--7--7--7--7--|--9--9--9--9--9--|--7--7--7--7--7--|----
-------|--7--7--7--7--7--|--5--5--5--5--5--|----


Keepin touch with mama kin.
---------|--------------
---------|--------------
---------|----------9---
2--2--2--|-----|----------9--9--9---
2--2--2--|-----|----------9--9--7---
0--0--0--|-----|----------7--7------