Aerosmith — Pink (crd)

Chords used:
G - F - Cadd - D - Em - A - C -C7
E--3----3-----3-----0----0---0---0--0--
B--3----3-----3-----3----0---2---1--1--
G--0----0-----0-----0----0---2---0--3--
D--0----0-----2-----4----2---2---2--2--
A--2----0-----3-----5----2---0---3--3--
E--3----1-----0----------0-------------

Verse:
G - F - C - D
E--3-3-3--3-3-3--3-3-3-------------
B--3-3-3--3-3-3--3-3-3-------------
G--0-0-0--0-0-0--0-0-0---------0~~-
D--0------0------2-2-2------4------
A--2------0------3-------5---------
E--3------1------------------------

Pink it`s my new obsession
Pink it`s not even a question,
Pink on the lips of your lover, `cause
Pink is the love you discover
Pink as the bing on your cherry
Pink `cause you are so very
Pink it`s the color of passion
`Cause today it just goes with the fashion

Chorus:
G F Cadd D
Pink it was love at first sight
G F Cadd D
Pink when I turn out the light, and
G F Cadd D
Pink gets me high as a kite
Em A C
And I think everything is going to be all right
C7
No matter what we do tonight

Verse:(same)
You could be my flamingo
`Coz pink is the new kinda lingo
Pink like a deco umbrella
It`s kink - but you don`t ever tell her
Pink it was love at first sight, and
Pink when I turn out the light
Pink gets me high as a kite
And I think everything is going to be all right
No matter what we do tonight

Solo:
/:slide
~:hold
E--------------------------------------------------------
B--13-14-13------12--11--11/14--14~-----12/11--9-11-9~---
G------------12----------------------12------------------
D--------------------------------------------------------
A--------------------------------------------------------
E--------------------------------------------------------

E------------------------------------------------------------
B------------------------------------------------------------
G---8-9-8------6/7/6----6/9-9~---------9--13/11---9------9~~-
D----------9----------7----------9--11---------------11------
A------------------------------------------------------------
E------------------------------------------------------------

E-------------------------------------------------------------------
B---6/7/6-----4/5/4------------7~~--------------7--9(11)-9--7--9--7~
G----------6---------4----4/6----------5--7--5----------------8-----
D-----------------------------------7-------------------------------
A-------------------------------------------------------------------
E-------------------------------------------------------------------

E--------11--------13---------15----------17----21~~~~-
B---7/9------9/11------11/13-------13/15---------------
G------------------------------------------------------
D------------------------------------------------------
A------------------------------------------------------
E------------------------------------------------------

Verse(same):
I want to be your lover
I wanna wrap you in rubber
As pink as the sheets that we lay on
Pink it`s my favorite crayon, yeah
Pink it was love at first sight
Pink when I turn out the light
Pink it`s like red but not quite
And I think everything is going to be all right
No matter what we do tonight