Aerosmith — Rag Doll

Rag Doll - Aerosmith
Tabbed by Csaba Horvath from Hungary.
2000.02.01

Intro:

e||----------------------------|----------------------------|
H||----------------------------|----------------------------|
G||-----9--9-7---9--11-9-------|-----9--9-7---9--11-9-------|
D||-----9--9-7---9--11-9-------|-----9--9-7---9--11-9-------|
A||--7---------------------7/5-|--7---------------------7/5-|
E||----------------------------|----------------------------|


e|----------------------------|--------------------------||
H|----------------------------|--------------------------||
G|----------------------------|--------------------------||
D|-----9--9-7---9--11-9-------|-----9--9-7---9--11-9-----||
A|-----9--9-7---9--11-9-------|-----9--9-7---9--11-9-----||
E|--7---------------------7/5-|--7-----------------------||

Verse:

e||---------------------------|---------------------------|
H||---------------------------|---------------------------|
G||-----------------------2---|--2--------------------2---|
D||--0------------0-1-2-4-----|--0------------0-1-2-2-----|
A||-----2--2----2-------------|-----2--2----2-------------|
E||---------------------------|---------------------------|


e|---------------------------|---------------------------||
H|---------------------------|---------------------------||
G|-----------------------2---|-----------------------2---||
D|--0------------0-1-2-2-----|--0------------0-1-2-4-----||
A|-----2--2----2-------------|-----2--2----2-------------||
E|---------------------------|---------------------------||


...Or something like that.