Aerosmith — Shit House Shuffle (tab)

main riff:

E---------------------------------------------------------|
B---------------------------------------------------------|
G---------------------------------------------------------|
D-----------3p0---0---3p0---0-----0-----------------------|
A-----------------------------------------3-----2-----0---|
E---0h13-------------------------------------------------|

Play that riff moderately fast eight times and then try this:
A F#5 G5 A5 G5
E----------------------------------------------------------|
B----------------------------------------------------------|
G----------------------------------------------------------|
D----2----4----5----7---5----5--5--------------------------|
A----2----4----5----7---5----5--5--------------------------|
E----0----2----3----5---3----3--3--------------------------|