Aerosmith — Soul Saver (tab)

intro(heavy distortion)-
E---------------------------------------2------|
B-----------------------2---------------2------|
G--9--9---11--9--7---7-2-----3--4------4------|
D--9--9---11--9--7---7-2-----3--4-------------|
A--7--7----9--7--5---5-----0-1--2-------------|
E----------------------------------------------|

rhythm figure 1-
|- - - - PM- - - - - - - - - - - - -|
E-----------------------------------|
B-------------------------------2---|
G-------------------------------2---|
D-----------4-------------------2---|
A---------4-4-4-4----2-----4--------|
E---0--1--2-2-2-2--0-0---0-2-0------|

You may have to mess around with the strumming pattern to get rhy.fig.1 to sound right.
rhy.fig.2-
E-----------------------------------|
B-------------2------------2--2-----|
G-------------2------------2--2--4--|
D-------------2------------2--2--4--|
A--------4-4----------4-4--------2--|
E---0-1--2-2-----0-1--2-2-----------|