Aerosmith — Toys In The Attic (btab)

Toys in the Attic

-------------------------------

-------------------------------

--7-5---5-------|--7-5---5------|--7-5---5------|--5---------------

0-----7---7-3-0-|------7---7-3-0|------7---7-3-0|5----3-5----------

opening riff (repeat) also used in chorus



------|------|------|----------

------|------|------|-----|---3---3---3-5--

------|------|/5----|5---|-----5---5----|-5----------

5-----|5--0-|------|---5-|3-------------|-----5-------

lights|voices|scream|



---------------------|---------

---------9-7|>--------------|---------9-7----|---------

---5-7-9----|--9->----------|---5-7-9-----5-6|---------

7-----------|------7->-7-5-6|7-----------|>-7->-7->-7----|---------





-------------------------------------------------------

---------------|repeat previous measure through verse into -------

7-7-7-7-7-7-7-7|-line for lights etc....---------------------------

-------------------------------------------------------





-------------------------------

-------------------|----------10-8---------

-------------------|---6-8-10--------------

7-7-7-7-7-7-7-7|8-8-8-8-8-8-8-8|8----------------------

Bridge repeat 8X



-------------------------------

----------------|----------10-8------------

10-8-6----------|---6-8-10-----|10-8-6-----------------

-------8-1-2-3-7|8-------------|-------8-1-2-3-7-------





-------------------------------

----------10-8-----|----------10-8---------

---6-8-10-----|10-8-6----------|---6-8-10--------------

8-------------|-------8-1-2-3-7|8----------------------





-------------------------------------------

------------------|repeat verse and chorus-------------

10-8-6---------5|5/6-7-7-7-7-7-------------------------

-------8-3-7-8-----------------------------