Aerosmith — Uncle Salty (tab)

intro-
A D A7 D
E--0-------2-------0-------2----|
B--2-------3-------1-------3----|
G--2-------2-------0-------2----|
D--2-------0-------2-------0----|
A--0---------------0------------|
E-------------------------------|

Repeat that a couple of times and then play this little
riff:
E------------------------------|
B------------------------------|
G------1--2------1--2---21----|
D---0---------0----------------|
A------------------------------|
E------------------------------|

Try this for the verse:

rhythm guitar plays A chord

lead plays the following

E----------------------------------------------3-5------3-0---|
B---------4h5------------4h5-----------4h5--------------------|
G-------------------------------------------------------------|
D-----7/-------------7/------------7/-------------------------|
A--0--------------0--------------0----------0--------0--------|
E-------------------------------------------------------------|

G
But when she cried at night
A
no one came (fill 1)

The chords are similar for the rest of the song changing only to F and then
E when Steven says "went insane."

G = 320003
A = x02220
F = 133211
E = 022100


For the little fill that sounds like the verse, either play that part of the
verse that is relevant or try this:
fill 1-
E---------------------------|
B-------------8h10-----8/5--|
G-----8h9-------------------|
D---------------------------|
A--0-------0--------0-------|
E---------------------------|

1st bridge riff:

E---------0--3p2-------2-------3----------0--5(1)-|
B--------------------------------------------------|
G--------------------------------------------------|
D------2-------------------------------2-----------|
A---0--------------0-------0--------0--------------|
E--------------------------------------------------|


2nd bridge riff:

E------3------1------0--------1------3----|
B--------3------3------3--------3---------|
G---0------0------0------0-0------0-------|
D-----------------------------------------|
A-----------------------------------------|
E-----------------------------------------|

Solo(distortion with pickup switch at(or around) top position)-
E--------------------------------------------------|
B-------------------10-12-12b--10--10----10-1013--|
G--5b---r---7b--11--------------------------------|
D---------7----------------------------------------|
A--------------------------------------------------|
E--------------------------------------------------|

E--------------------------------------------------|
B-13--13--13---------------------------------------|
G-----------13h15--15-18-13-15-18-13-15-18-18-15-13|
D--------------------------------------------------|
A--------------------------------------------------|
E--------------------------------------------------|

E--------------------------------------------------|
B-----------------------------13-15-13-15-15b-r-13-|
G-15-18b--18b--18-15----1315----------------------|
D--------------------------------------------------|
A--------------------------------------------------|
E--------------------------------------------------|
hold
E---------------------------14-16-16b-r-16b-r--16b-rp13-16b-|
B-----13----13-15-13--1517---------------------------------|
G-15-----15-------------------------------------------------|
D-----------------------------------------------------------|
A-----------------------------------------------------------|
E-----------------------------------------------------------|

Symbols used in transcription:
= slide
h = hammer-on
p = pull-off
b = bend
r = release