Aerosmith — Walk On Down

~From: dan mahoney 
~Subject: Walk this Way

This isn`t all of it (I don`t know all of it...) but here`s the opening riff
to tide you over for a minute or two.

[-------------------------------------------------------------------------]
[-------------------------------------------------------------------------]
[-------------------------------------------------------------------------]
[----:----:-----2-----:-----:-------------:---:----2---:---:----2-----2---]
[--0---1----2------0-----1----2---------0---1---2-----0--1---2------------]
[--------------------------------0---------------------------------3------]


[-------------------------------------------------------------------------]
[-------------------------------------------------------------------------]
[-------------------------------------------------2-----------------------]
[---:--:---2----:--:----------:--:--2----:--:--2--2-----------------------]
[-0--1--2-----0--1--2-------0--1--2----0--1--2----0-----------------------]
[---------------------0---------------------------------------------------]

Of course the timing of this is meaningless...but you get the idea!
Dan


~From: chris@labtam.labtam.oz.au (Chris Taylor)
~Subject: Aerosmith - walk this way

Start of Aerosmiths` "Walk this way"...
(Or something like it anyway...)

|----------------------|-----------------------------|
|----------------------|-----------------------------|
|----------------------|-----------------------------|
|--------2--------2----|---------2--------2---2------|
|--0-1-2----0-1-2------|---0-1-2----0-1-2------------|
|-------------------0--|--------------------3--------|
^ ~
*
---/