Aeternus — Nordlys

Nordlys - 
from the band: Aeturnus
>From the album: Dark Sorcery
Trascription by : P Mackay
E-Mail address : lord_balsama@hotmail.com

This Tablature was created with Tab Form Creator by Ugo Gasparri
ugo_er_mejo@geocities.com

Tuning: E
Tab Notation:
/ Slide
h hammer-on


****This song is in a 3/4 time. The rythem chord is an E minor


Riff1 Riff 2
E-|-----------------------------/-------------------------------
B-|-----------------------------/--------------------5-3-2-3-5-0
G-|------2-4--5-4-2-4-4-2-------/-------2-4--5-4-2-4------------
D-|--245-----------------5-4-5-2/--2-4-5------------------------
A-|2----------------------------/2------------------------------
E-|-----------------------------/-------------------------------
*
*
*
* Riff 3
E-|-------------------------------------------------------------
B-|-3/5-3-2-3-2h3h2-0-2-3-5-3-2---------------------------------
G-|-------------------------------------------------------------
D-|-------------------------------------------------------------
A-|-------------------------------------------------------------
E-|-------------------------------------------------------------

*
*
*
* Play at the end of Riff 3.
E-|-------------------------------------------------------------
B-|-0-----------------------------------------------------------
G-|---2-0---0---------------------------------------------------
D-|-------4---4-2-----------------------------------------------
A-|-------------------------------------------------------------
E-|-------------------------------------------------------------

*
*
*
* Riff 4 (3x)
E-|-3-2-3-5-3-2-3-2-0---0---------------------------------------
B-|-------------------3---3-------------------------------------
G-|-------------------------------------------------------------
D-|-------------------------------------------------------------
A-|-------------------------------------------------------------
E-|-------------------------------------------------------------

*
*
*
* 1st ending for Riff 4 2nd ending for Riff 4
E-|-3-2-3-5-3-2-3-2-0---------------------/---------------------
B-|-------------------3-2-0---0-----------/--2-0---0------------
G-|-------------------------2-----0-------/------2------0-------
D-|-----------------------------4---2-0-2-/-----------4---2-----
A-|---------------------------------------/---------------------
E-|-------------------------------------------------------------

The timing is strange
but it sounds right..
*
*
*
* Riff 5
E-|-------------------------------------------------------------
B-|-------------------------------------------------------------
G-|---------2-4--5-4-2-4--4-2-4-2h4h2-0-------------------------
D-|---2-4-5------------------------------4-2--------------------
A-|-2-----------------------------------------------------------
E-|-------------------------------------------------------------

*
*
*
* Riff 6
E-|---------------------------------------0---------------------
B-|-----------------------5-3-2-3-2h3h2h0---0-------------------
G-|---------2-4--5-4-2-4----------------------0-----------------
D-|---2-4-5-------------------------------------2---------------
A-|-2-----------------------------------------------------------
E-|-------------------------------------------------------------

*
*
*
* Riff 7
E-|-8-7-5-7--7-5-3-5--5-3-2-3-2---------------------------------
B-|-----------------------------4-5-0---------------------------
G-|-------------------------------------------------------------
D-|-------------------------------------------------------------
A-|-------------------------------------------------------------
E-|-------------------------------------------------------------
When you play this the second time, add an extra open B note
*
*
*
* Riff 8
E-|-------------------------------------------------------------
B-|-------------------------------------------------------------
G-|---------2-4--5-4-2-4-4-2------------------------------------
D-|---2-4-5-------------------5-4-5-2---------------------------
A-|-------------------------------------------------------------
E-|-------------------------------------------------------------
The second time you play this, add an open B note
*
*
*
* Riff 9
E-|------------------------------------------------------------
B-|------------------------------------------------------------
G-|---------2-4--5-4-2-4--4-2-4-2h4h2-0------------------------
D-|---2-4-5-----------------------------4-0-2------------------
A--2-----------------------------------------------------------
E-|------------------------------------------------------------

*Well, I believe that is it. I hope I didn't leave out any riffs. I
thought this
would be a fun song to tab, but it turned out to be a bitch! A lot of
small changes adds to the degree
of difficulty. I kept losing my place in some of the repetitions. I
hope
it is close to perfect. Let me know of any corrections I need to make.
Also, I don't usually right the order of the song (being a lazy ass and
all), but here it is. It's probably wrong, so just listen to the song.

*Order*
Riff 1 x1
Riff 2 x1
Riff 1 x1
Riff 2 x1
Riff 3 x4
+Ending...
Riff 4 x3
+1st Ending
Riff 4 x3
+2nd Ending
Riff 5 x1
Riff 6 x1
Riff 7 x2
Riff 8 x2
Riff 4 x3
+1st Ending
Riff 1 x5
Riff 9 x1
*


______________________________________________________
Get Your Private, Free Email at http://www.hotmail.com