Afi — At A Glance

AFI - At a Glance
By:Andrew (Guitarguyx182@belg88.com)

Intro
e|-------------------------------------------|
B|-------------------------------------------|
G|-------------------------------------------|
D|-7-8-7-8-7-8-10-10-7-8-7-8-7-8-5-5-8/7/8---|
A|-0-0-0-0-0-0-0--0--0-0-0-0-0-0-0-0---------|
E|-------------------------------------------|
Verse
e|-------------------------------------------|
B|-------------------------------------------|
G|-5-7---5-7-----5-7-------------------------|
D|-5-7-3-5-7-3-5-5-7-3-3-5-7-----------------|
A|-3-5-3-3-5-3-5-3-5-3-3-5-7-----------------|
E|-----1-----1-3-----1-1-3-5-----------------|
Chorus
e|-------------------------------------------|
B|-------------------------------------------|
G|---8---5---8-------------------------------|
D|-5-8-8-5-5-8-3-8-7-5-----------------------|
A|-5-6-8-3-5-6-3-8-7-5-----------------------|
E|-3---6---3---1-6-5-3--/--------------------|

e|-------------------------------------------|
B|-------------------------------------------|
G|---8---------------------------------------|
D|-5-8-7-7-----------------------------------|
A|-5-6-7-7-----------------------------------|
E|-3---5-5-----------------------------------|

e|---------------------------------------------------------------------------|
B|---------------------------------------------------------------------------|
G|---------------------------------------------------------------------------|
D|-----7-8-7--------------7-8-7----------10-----7-8-7---------10/7-x2--10-7--|
A|-5-5-------6-6-6-8-6-5-5-------6-6-6-8----5-5-------6-6-6-8----------10-7--|
E|---------------------------------------------------------------------8--5--|

Outro
e|------------|
B|------------|
G|--------7---|
D|-5--8-7-7---|
A|-5--8-7-5---|
E|-3--6-5-----|

e|---------------------------------------------------------------------|
B|---------------------------------------------------------------------|
G|-12-15-14-17-19-20-19--17-15-14---17-15--14---17-15--14-10--14-12----|
D|-x--x--x--x--x--x--x---x--x--x----x--x---x----x--x---x---x--x--x-----|
A|-10-13-12-15-17-18-17--15-13-12---15-13--12---15-13--12--8--12-10----|
E|---------------------------------------------------------------------|

e|--------------------------------------------------------|
B|--------------------------------------------------------|
G|--12-14-12-10-16-17-15--14---13-14-13--12---------------|
D|--x--x--x--x--x--x--x---x----x--x--x---x---5------------|
A|--10-12-10-8--14-15-13--12---11-12-11--10--5------------|
E|-------------------------------------------3------------|