Afi — Born In The Usa

-------------------------------------------------------------------------------
BORN IN THE USA - AFI
-------------------------------------------------------------------------------

Tabbed by: danc446
Email: danc446@yahoo.com

Tuning: Standard E

INTRO/VERSE
e|----------------------------------------|
B|----------------------------------------|
G|-6-6-6-6-6-6-6--6-11-----9-----7--------|
D|-6-6-6-6-6-6-6--6-11---9-9---7-7---6-6--|
A|-4-4-4-4-4-4-4--4--9---9-7---7-5---6-6--|
E|-----------------------7-----5-----4-4--|

CHORUS
e|-------------------------------------------------------------------|
B|-------------------------------------------------------------------|
G|--9-9-9-9--11-11-11-11-9-9-9-9-11-11-11-11--13-13--11-11--9-9--7-7-|
D|--9-9-9-9--11-11-11-11-9-9-9-9-11-11-11-11--13-13--11-11--9-9--7-7-|
A|--7-7-7-7---9--9--9--9-7-7-7-7--9--9--9--9--11-11---9--9--7-7--5-5-|
E|-------------------------------------------------------------------|

e|--------------------------------------|
B|--------------------------------------|
G|---11-11-9-----11-11-9-----11-11-9----|
D|---11-11-9-11--11-11-9-11--11-11-9-11-|
A|---9--9--7-11---9--9-7-11---9--9-7-11-|
E|------------9-----------9-----------9-|
^
End here.
| / slide up
| slide down
| h hammer-on
| p pull-off
| ~ vibrato
| + harmonic
| x Mute note
===============================================================================