Afi — Brownie Bottom Sundae

-------------------------------------------------------------------------------
BROWNIE BOTTOM SUNDAE- AFI
-------------------------------------------------------------------------------

Tabbed by: DANC446
Email: danc446@yahoo.com

Tuning: Standard E

INTRO
e|---------------------9-----------------------------9---------------12p11p9-|
B|-------------------9-------9------9------9------9--------9------9----------|
G|--6-6-6:----11-11b13---11b13--11b13--11b13--11b13----11b13--11b13----------|
D|--6-6-6:-------------------------------------------------------------------|
A|--4-4-4:-------------------------------------------------------------------|
E|---------------------------------------------------------------------------|

e|--9------9-----------------------------------------------------------------|
B|-----12-12b14--12p11-9-9-----9---------------------------------------------|
G|-------------------------11b13---------------------------------------------|
D|---------------------------------------------------------------------------|
A|---------------------------------------------------------------------------|
E|---------------------------------------------------------------------------|

VERSE
C#5 A5 E5 B5
e|---------------------------------------------------------------------------|
B|---------------------------------------------------------------------------|
G|---6-6-6-6-6-6-------------9-9-9-9-9----------------PLAY ------------------|
D|---6-6-6-6-6-6-7-7-7-7-7-7-9-9-9-9-9--9-9-9-9-9--------4x------------------|
A|---4-4-4-4-4-4-7-7-7-7-7-7-7-7-7-7-7--9-9-9-9-9----------------------------|
E|---------------5-5-5-5-5-5------------7-7-7-7-7----------------------------|

CHORUS
A5 E5 B5 D5 A5 B5
e|---------------------------------------------------------------------------|
B|--------------------------------------play 3x------------------------------|
G|---------9-----------7-7-7-7-7-7-7-7-------then...-------------------------|
D|-7-7-7-7-9-9-9-9-9-9-7-7-7-7-7-7-7-7----------------7-7-7-7-7-7--9-9-9-9-9-|
A|-7-7-7-7-7-9-9-9-9-9-5-5-5-5-5-5-5-5----------------7-7-7-7-7-7--9-9-9-9-9-|
E|-5-5-5-5---7-7-7-7-7--------------------------------5-5-5-5-5-5--7-7-7-7-7-|

OUTRO
e|---------------------------------------------------------------------------|
B|--------9---9-------9-------------9----9------9------------9----9----------|
G|-11-11b13-(13)r9------11---11-11b13--(13)r9-----11--11-11b13--(13)r9-------|
D|-----------------11-------------------------11-----------------------11----|
A|---------------------------------------------------------------------------|
E|---------------------------------------------------------------------------|

e|-12p11-9--9---------9------------------------------------------------------|
B|------------12--12b14-----9----9-------9------------9----9-----------------|
G|----------------------11b13--(13)r9------11--11-11b13--(13)r9---9----------|
D|-------------------------------------11-----------------------11--11-11::--|
A|---------------------------------------------------------------------------|
E|---------------------------------------------------------------------------|

For the thirteens in parentheses, (13), it is the tone of the bend note,
a 11, bent two frets to sound like a thirteen.

| / slide up
| slide down
| h hammer-on
| p pull-off
| ~ vibrato
| + harmonic
| x Mute note
| b Bend
| r Release
| () The tone of the bend note

===============================================================================