Afi — But Home Is Nowhere

Tuning Dropped D:
D A D G B e

Intro
|-----------------------------------------------------------|
|-----------------------------------------------------------|
|-----------------------------------------------------------|
|-4-4-4-4-4-4-4-4-4-4-4-4-7-7-7-7-7-7-7-7-2-2-2-2-6-6-6-6---|
|-----------------------------------------------------------|
|-----------------------------------------------------------|
X4
Verse 1:
|------------------------------------------------------------------------|
|------------------------------------------------------------------------|
|------------------------------------------------------------------------|
|-11-11-11-11-11-11-11-11-11-11-11-11-14-14-14-14-14-14-14-14-9-9-9-9-13-|
|-9--9--9--9--9--9--9--9--9--9--9--9--12-12-12-12-12-12-12-12-7-7-7-7-11-|
|------------------------------------------------------------------------|
(continued)
------------------------------------------------------------------------|
------------------------------------------------------------------------|
------------------------------------------------------------------------|
-13-13-13-11-11-11-11-11-11-11-11--7---2--------------------------------|
-11-11-11-9--9--9--9--9--9--9--9---7---2--------------------------------|
-----------------------------------7---2--------------------------------|
Chorus: (ring each of these,listen to the song to figure out the rythym)
|----------------------------------------|
|----------------------------------------|
|----------------------------------------|
|-7---2---4------------------------------|
|-7---2---4------------------------------|
|-7---2---4------------------------------|
x4
Outtro: (play after very first chorus)
|---------------------------------------------------------|
|---------------------------------------------------------|
|---------------------------------------------------------|
|-4-4-4-4-4-4-4-4-4-4-4-4-7-7-7-7-7-7-7-7-2-2-2-2-6-6-6-6-|
|---------------------------------------------------------|
|---------------------------------------------------------|
(continued)
---------------------------------------------|
---------------------------------------------|
---------------------------------------------|
-4-4-4-4-4-4-4-4-4-4-4-4-11--9--7--12--11----|
---------------------------------------------|
---------------------------------------------|
Verse 1:
|------------------------------------------------------------------------|
|------------------------------------------------------------------------|
|------------------------------------------------------------------------|
|-11-11-11-11-11-11-11-11-11-11-11-11-14-14-14-14-14-14-14-14-9-9-9-9-13-|
|-9--9--9--9--9--9--9--9--9--9--9--9--12-12-12-12-12-12-12-12-7-7-7-7-11-|
|------------------------------------------------------------------------|
(continued)
----------|
----------|
----------|
-13-13-13-|
-11-11-11-|
----------|
x2
Then: (ring these then go straight into chorus)
|---------------|
|---------------|
|---------------|
|-11--14--9--11-|
|-9---12--7--9--|
|---------------|
Chorus: (ring each of these,listen to the song to figure out the rythym)
|----------------------------------------|
|----------------------------------------|
|----------------------------------------|
|-7---2---4------------------------------|
|-7---2---4------------------------------|
|-7---2---4------------------------------|
Bridge:
|-------------------------------------------------------------------------|
|-------------------------------------------------------------------------|
|-------------------------------------------------------------------------|
|-11-11-11-11-11-11-11-11-13-13-13-13-13-13-13-13-14-14-14-14-14-14-14-14-|
|-9--9--9--9--9--9--9--9--11-11-11-11-11-11-11-11-12-12-12-12-12-12-12-12-|
|-------------------------------------------------------------------------|
(continued) (as you play the tempo picks up again listen to the song to figure out the rythmn)
-------------------------|
-------------------------|
-------------------------|
-16-16-16-16-16-16-16-16-|
-14-14-14-14-14-14-14-14-|
-------------------------|
x4? x6? x8?
Chorus: (ring each of these,listen to the song to figure out the rythym)
|----------------------------------------|
|----------------------------------------|
|----------------------------------------|
|-7---2---4------------------------------|
|-7---2---4------------------------------|
|-7---2---4------------------------------|