Afi — Cereal Wars

-------------------------------------------------------------------------------
CEREAL WARS - AFI
-------------------------------------------------------------------------------

Tabbed by: danc446
Email: danc446@yahoo.com

Tuning: Standard E (EADGBE)

INTRO
e|----------------------------------------|
B|----------------------------------------|
G|--5:--------5:--------5:--------5:------|
D|--5:--5:----5:--5:----5:--5:----5:--5:--|
A|--3:--5:----3:--5:----3:--5:----3:--5:--|
E|------3:--------3:--------3:--------3:--|

VERSE
e|-------------------------------------------|
B|------------------------------------play---|
G|-----9----10-10-10------9-9-9-9-9-----4----|
D|---9-9-9--10-10-10--7-9-9-9-9-9-9---times--|
A|---9-7-9---8--8--8--7-9-7-7-7-7-7----------|
E|---7---7------------5-7--------------------|

CHORUS
e|---------------------------------------------------------------------------|
B|---------------------------------------------------------------------------|
G|-------------------------------7/97--play-------------------5-5-5-5-5-5-5-|
D|-9-9-9-9--7-/-9-9-9--9-9-9-9--7/97---2x---9-9-9-97/9-9-9--5-5-5-5-5-5-5-|
A|-9-9-9-9--7-/-9-9-9--9-9-9-9--5/75--then--9-9-9-97/9-9-9--3-3-3-3-3-3-3-|
E|-7-7-7-7--5-/-7-7-7--7-7-7-7---------------7-7-7-75/7-7-7----------------|

CHORUS END
e|---------------------------------------------------------------------------|
B|---------------------------------------------------------------------------|
G|------9-----9-9-9-----9----9-9-9----9---9-9-9-9-9-9-9-9-9-9-9-9-9-9-9-9-9--|
D|---9--9--9--9-9-9---9-9-9--9-9-9--9-9-9-9-9-9-9-9-9-9-9-9-9-9-9-9-9-9-9-9--|
A|---9--7--9--7-7-7---9-7-9--7-7-7--9-7-9-7-7-7-7-7-7-7-7-7-7-7-7-7-7-7-7-7--|
E|---7-----7----------7---7---------7---7------------------------------------|

END
e|------|
B|------|
G|------|
D|--9---|
A|--9---|
E|--7---|

| / slide up
| slide down
| h hammer-on
| p pull-off
| ~ vibrato
| + harmonic
| x Mute note

===============================================================================