Afi — Dream Of Walking

AFI - Dream of Walking

Intro
e|---------------------------------------------|
B|---------------------------------------------|
G|--9-----10----12-------9------10---12---15---|
D|--x--9--x-----x---13---x---9--x----x----x----|
A|--7--8--8-----10--10---7---8--8----10---13---|
E|---------------------------------------------|

e|-------------------------------------------------------------------------|
B|-------------------------------------------------------------------------|
G|------------------------------------------------------------------7------|
D|----------9--9--------7--7------9------------9--9-------7--7-------------|
A|--7--7--7------10--10------9--9--10--7--7--7------10--10-----9--9--------|
E|--------------------------------------------------------------------10---|

e|--------------------------------------------------------------|
B|--------------------------------------------------------------|
G|---------------------------------------------------------7----|
D|-----------9--9---------7--7--------9------10--12---9----7----|
A|--7--7--7-------10--10--------9--9-----10--10--10--10----5----|
E|--------------------------------------------------------------|

Verse
e|------------------------------------------|
B|---------------------7--------------------|
G|--9---------9--------7---9-----------9----|
D|-----9---------9-----7------9--------9----|
A|--7----10---7----10--5---7----10-----7----|
E|--x-----x---x----x-------x-----x----------|

Pre Chorus
e|-------------------------------------------------------------|
B|-------------------------------------------------------------|
G|--9---5-------9-------7---9-------7---4---9--11-12--15-------|
D|--9---5---5---9---5---7---9---5---7---4---x--x--x---x--------|
A|--7---3---5---7---3---5---7---5---5---2---7--9--10--13-------|
E|----------3-------3-----------3------------------------------|

Chorus
e|----------------------------------------------------------------------------|
B|----------------------------------------------------------------------------|
G|--9--11--12--14--------7---9---11-12--14--------7--14---12---11---9---------|
D|--x--x---x---x-----5---7---x---x--x---x-----5---7--x----x----x----x----8----|
A|--7--9---10--12----5---5---7---9--10--12----5---5--12---10---9----7----8----|
E|-------------------3------------------------3--------------------------6----|

Outro
e|----------------------|
B|----------------------|
G|------9---------------|
D|--2---9---5---8-------|
A|--2---7---5---8-------|
E|--0-------3---6-------|


e|-----------5---7---------------------------------5---7----------------------|
B|------5-------------7-------------------------5-----------------------------|
G|-----------------------------------4-----------------------7--------7---9---|
D|--2-------------------------2---2-----5---2---------------------2---x---x---|
A|--2-------------------------2-------------2---------------------2---5---7---|
E|--0-------------------------0-----------------------------------0-----------|

e|------------------------------------------------------------------------|
B|------------------------------------------------------------------------|
G|------7/9--------------------7-----9---12-------7-----12---14---15------|
D|--2---x/x----2---5---2---2---x-----x---12----12-7-----12---14---15---2--|
A|--2---5/7----2---5---2---2---5-----7---10----12-5-----10---12---13---2--|
E|--0----------0---3---0---0-------------------10----------------------0--|