Afi — File13

-------------------------------------------------------------------------------
FILE 13- AFI
-------------------------------------------------------------------------------

Tabbed by: danc446
Email: danc446@yahoo.com

Tuning:

INTRO/VERSE
e|-------------------------------------------------------------------|
B|-------------------------------------------------------------------|
G|-----------------------------------------7----------------------9--|
D|---9-9-9-9-9--7--9-9-9-9-9--7--9-9-9-9-9-7-5-5-5-5-5--7-7-7-7-7-9--|
A|---9-9-9-9-9--7--9-9-9-9-9--7--9-9-9-9-9-5-5-5-5-5-5--7-7-7-7-7-7--|
E|---7-7-7-7-7--5--7-7-7-7-7--5--7-7-7-7-7---3-3-3-3-3--5-5-5-5-5----|

CHORUS
e|--------------------------------------------------------------------|
B|--------------------------------------------------------------------|
G|-------------------7-7-7-7-7-7-7-7----------------------------------|
D|---9-9-9-9-9-9-9-9-7-7-7-7-7-7-7-7-7-7-7-7-7-7-7-7-9-9-9-9-9-9-9-9--|
A|---9-9-9-9-9-9-9-9-5-5-5-5-5-5-5-5-7-7-7-7-7-7-7-7-9-9-9-9-9-9-9-9--|
E|---7-7-7-7-7-7-7-7-----------------5-5-5-5-5-5-5-5-7-7-7-7-7-7-7-7--|

BRIDGE
e|---------------------------------------------------------------------------|
B|---14h15-15-15-15-15-15-15-15-15p14-14-14-14-14-14-14-14h15-15-15-15-15-15-|
G|---------------------------------------------------------------------------|
D|---------------------------------------------------------------------------|
A|-----------------------------------------PLAY TWICE------------------------|
E|---------------------------------------------------------------------------|


| / slide up
| slide down
| h hammer-on
| p pull-off
| ~ vibrato
| + harmonic
| x Mute note

===============================================================================