Afi — I Wanna Get A Mohawk

------------------------------------------------------------------------------- 
I WANNA GET A MOHAWK - AFI
-------------------------------------------------------------------------------

By: Isaiah
E-mail: isaiah_hollander@hotmail.com
Comments: Stantard Tuning EADG

- slide down
/ - slide up
> - strum

Intro
G |----------------------------------------------------------------|
D |----------------------------------------------------------------|
A |---5---5---5--3--5----------------------------------------------|
E |----------------------------------------------------------------|

Chorus
G |----------------------------------------------------------------|
D |-----------------------------5----------------------------------|
A |--5>-----------3-3-3--5>--8-8---8-8----------------3-3-3--5>----|
E |------6>---3-3----------------------6-6-6-6-6-3-3---------------|

Chorus (continued)
G |----------------------------------------------------------------|
D |--------------------------------------5-------------------------|
A |--512/9/7/5-------------3-3-3-5>--8-8---8-8--------------3-3-3-|
E |-----------6-6-6-6-6-3-3--------------------6-6-6-6-6-3-3-------|

Verse x2
G|-----------------------------------------------------------------|
D|-----------------------------------------------------------------|
A|--5-5-77-88-3---x3---then---5-5-5-5-5--8-7-3---------------------|
E|-----------------------------------------------------------------|

Chorus x1
Verse x2

Bridge
G|-----------------------------------------------------------------|
D|---------------------------------------------------10-10-10-10---|
A|--5-5-5-5-5-8-3-3-3--5-5-5-5-5-1-8-8-8-5-5-5-5-5-8---------------|
E|-----------------------------------------------------------------|

Bridge (continued)
G|-----------------------------------------------------------------|
D|-----------------------------------------------------------------|
A|--5-5-5-5-5-1-8-8-8----------------------------------------------|
E|-----------------------------------------------------------------|

Intro x2

Great song, have fun...
P. L. U.

-------------------------------------------------------------------------------