Afi — Narrative Of Soul Against Soul

-------------------------------------------------------------------------------
NARRATIVE OF SOUL AGAINST SOUL - AFI
-------------------------------------------------------------------------------

By:mike s
you know the rythym...just work with me people...
intro...chorus too
e|----------3-----------------------------------------------------------------|
B|----------3-----------------------------------------------------------------|
G|----------3----------8---6--------------------------------------------------|
D|--3---6---3----------8---6---6---8----------------3-------------------------|
A|--3---6--------------6---4---6---8----------------3-------------------------|
E|--1---4----------------------4---6----------------1-------------------------|
(harmonics) all that x2 then end on f

verse..x2 strumming- x2 palm muting (2nd verse just x2 strumming)
e|---------------------------------------------------------------------------|
B|---------------------------------------------------------------------------|
G|--5------------5---8-------------------------------------------------------|
D|--5---6---8----5---8---8---------------------------------------------------|
A|--3---6---8----3---6---8---------------------------------------------------|
E|------4---6------------6---------------------------------------------------|

1st solo. (*-palm mute) x4
e|------------------4----------------------4-----4-------6-------4----4------|
B|--6-*6-*6-8-*8-*8---*6---6-*6-*6-8-*8-*8---*6----*6-*6---*6-*6---*6--------|
G|---------------------------------------------------------------------------|
D|---------------------------------------------------------------------------|
A|---------------------------------------------------------------------------|
E|---------------------------------------------------------------------------|

at end of fourth...
e|---------6--------3-3----------8-8-8-8-8-8-8-8-8---------------------------|
B|--*6-*6----*6-*6-----------------------------------------------------------|
G|---------------------------------------------------------------------------|
D|---------------------------------------------------------------------------|
A|---------------------------------------------------------------------------|
E|---------------------------------------------------------------------------|

outro..
e|--------------4-4--------------4-4--------------4-4--8-8-------------------|
B|--6-6-6-8-8-8------6-6-6-8-8-8------6-6-6-8-8-8----------------------------|
G|---------------------------------------------------------------------------|
D|---------------------------------------------------------------------------|
A|---------------------------------------------------------------------------|
E|---------------------------------------------------------------------------|

-------------------------------------------------------------------------------
NARATIVE OF SOUL AGAINST SOUL - afi
-------------------------------------------------------------------------------

By: Daniel Florez RvltnUltrBlu@aol.com

e|--0-0-0-0-0-0----7-8-7-----------------------------------------------------|
B|--5-7-8-5-7-8----8-8-8--8-10-8---------------------------------------------|
G|------------------------7-7--7---------------------------------------------|
D|---------------------------------------------------------------------------|
A|---------------------------------------------------------------------------|
E|---------------------------------------------------------------------------|

e|--0-0-0-0-0-0----7-10-8----------------------------------------------------|
B|--5-7-8-5-7-8----8-8--8--8-10-8--------------------------------------------|
G|-------------------------7-7--7--------------------------------------------|
D|---------------------------------------------------------------------------|
A|---------------------------------------------------------------------------|
E|---------------------------------------------------------------------------|