Afi — Perfect Fit

AFI - Perfect Fit

Intro
e|---------------------------------------------------------------------------|
B|---------------------------------------------------------------------------|
G|----5-7-5----------5-7-5--10-----------------------------------------------|
D|-7--5-7-5--7-----7-5-7-5--10--10-------------------------------------------|
A|-7--3-5-3--7-----7-3-5-3--8---10---x2--------------------------------------|
E|-5---------5-3-4-5------------8--------------------------------------------|
Verse
e|---------------------------------------------------------------------------|
B|---------------------------------------------------------------------------|
G|------5----7---5--4-------5--7-5-4-----------------------------------------|
D|--7---5----7---5--4----7--5--7-5-4-----------------------------------------|
A|--7---3----5---3--2----7--3--5-3-2-----------------------------------------|
E|--5--------------------5---------------------------------------------------|
Chorus
e|---------------------------------------------------------------------------|
B|---------------------------------------------------------------------------|
G|------5----7---5--4-------5--7-5-4-----------------------------------------|
D|--7---5----7---5--4----7--5--7-5-4-----------------------------------------|
A|--7---3----5---3--2----7--3--5-3-2-----------------------------------------|
E|--5--------------------5---------------------------------------------------|
Outro
e|---------------------------------------------------------------------------|
B|---------------------------------------------------------------------------|
G|-----5---7-----------------------------------------------------------------|
D|-7---5---7------x4---------------------------------------------------------|
A|-7---3---5-----------------------------------------------------------------|
E|-5-------------------------------------------------------------------------|