Afi — Six To Eight

By: Eric Canoura
Ride BMX! (Matt H. is cool)

Intro
e|------------------------------------------------------------------|
B|--------------------------------------------O---------------------|
G|------------------------4-----------------------------------------|
D|---9---5---7----7----7-----7--------7----7-----7------------------|
A|---O---O---O--O---O-----------O--3-----3----------3/5-------------|
E|------------------------------------------------------------------|

Verse
e|------------------------------------------------------------------|
B|------------------------------------------------------------------|
G|----9-9-9-9------5-5-5-5------7-7-7-7-7-7-7-----------------------|
D|----9-9-9-9------5-5-5-5------7-7-7-7-7-7-7-----------------------|
A|----7-7-7-7------3-3-3-3------5-5-5-5-5-5-5-----------------------|
E|------------------------------------------------------------------|

Chorus
e|------------------------------------------------------------------|
B|------------------------------------------------------------------|
G|---5-5-5----------------------2-2-2-------------------------------|
D|---5-5-5----5-5-5----2-2-2----2-2-2-------------------------------|
A|---3-3-3----5-5-5----2-2-2----0-0-0-------------------------------|
E|------------3-3-3----0-0-0----------------------------------------|

bridge (played heavy distortion)
e|------------------------------------------------------------------|
B|----------------------------------O-------------------------------|
G|---------------4--------------------------------------------------|
D|-------7----7-----7-------7----7-----7------777777----------------|
A|----O-----0---------O--3-----3----------3/5-555555----------------|
E|------------------------------------------------------------------|