Afi — The Great Disappointment

#----------------------------------PLEASE NOTE---------------------------------#
#This file is the author's own work and represents their interpretation of the-#
#song. You may only use this file for private study, scholarship, or research.-#
#------------------------------------------------------------------------------#

AFI - The Great Disappointment
Submitted By: Sqweeky
EMail: Blindside831@aol.com


Intro
Clean
e|------4--------4----------4-----5-----5----------7-----7--5--4----4-----4---|
B|---------5--------5--------------------------------------------------5------|
G|---6--------6----------6-----6-----6-----6----6-----6-----------------------|
D|----------------------------------------------------------------------------|
A|----------------------------------------------------------------------------|
E|----------------------------------------------------------------------------|

e|-----------4--------------------4----------4--------------------------------|
B|---5---------------4h5----5--5-----5----------------------------------------|
G|--------6-----6-------------------------6-----------------------------------|
D|----------------------------------------------------------------------------|
A|----------------------------------------------------------------------------|
E|----------------------------------------------------------------------------|x2

Distorted
e|------4--------4----------5-----5--------4--------7-----7-------------------|
B|---------5--------5----------------5--------5--------5-----5----------------|
G|---6--------6----------6-----6--------6--------6----------------------------|
D|----------------------------------------------------------------------------|
A|----------------------------------------------------------------------------|
E|----------------------------------------------------------------------------|


Verse
Distorted
e|----------------------------------------------------------4--------4--------|
B|-------------------------------------------------------------5--------------|
G|---4-/-6--6--6--6----6----6-----4-/-6--6--6--6----6----6--------6-----------|
D|---x---x--x--x--x----x----x-----x---x--x--x--x----x-------------------------|
A|---2-/-4--4--4--4----4----4-----2-/-4--4--4--4----4-------------------------|
E|----------------------------------------------------------------------------|
PM |.......| |.......|

e|-------------------------------5p4-----4-----5-----5-----4------------------|
B|------------------------------------------------------5---------------------|
G|---4-/-6--6--6--6----6----6---------6-----6-----6---------------------------|
D|---x---x--x--x--x----x----x-------------------------------------------------|
A|---2-/-4--4--4--4----4----4-------------------------------------------------|
E|----------------------------------------------------------------------------|
PM |.......|

e|----------------------------------------------------------4--------4--------|
B|-------------------------------------------------------------5--------------|
G|---4-/-6--6--6--6----6----6-----4-/-6--6--6--6----6----6--------6-----------|
D|---x---x--x--x--x----x----x-----x---x--x--x--x----x-------------------------|
A|---2-/-4--4--4--4----4----4-----2-/-4--4--4--4----4-------------------------|
E|----------------------------------------------------------------------------|
PM |.......| |.......|

e|-------------------------------5--5--5--5--7--7--7--7-----------------------|
B|-------------------------------5--5--5--5--5--5--5--5-----------------------|
G|---4-/-6--6--6--6----6----6----6--6--6--6--6--6--6--6-----------------------|
D|---x---x--x--x--x----x----x-------------------------------------------------|
A|---2-/-4--4--4--4----4----4-------------------------------------------------|
E|----------------------------------------------------------------------------|
PM |.......|

e|----------------------------------------------------------------------------|
B|----------------------------------------------------------------------------|
G|---6--6--6--6--6--6----8--8--8--8--8----9--9--9--9--9-/-13------------------|
D|---x--x--x--x--x--x----x--x--x--x--x----x--x--x--x--x----x------------------|
A|---4--4--4--4--4--4----6--6--6--6--6----7--7--7--7--7-/-11------------------|
E|----------------------------------------------------------------------------|


Chorus
Distorted
e|---4--4--4--4--4----2--2--2--2--2----5--5--5--5--5----7--7--7--7--7---------|
B|---5--5--5--5--5----2--2--2--2--2----5--5--5--5--5----7--7--7--7--7---------|
G|---6--6--6--6--6----3--3--3--3--3----6--6--6--6--6----8--8--8--8--8---------|
D|---6--6--6--6--6----4--4--4--4--4----7--7--7--7--7----9--9--9--9--9---------|
A|---4--4--4--4--4----4--4--4--4--4----7--7--7--7--7----9--9--9--9--9---------|
E|---4--4--4--4--4----2--2--2--2--2----5--5--5--5--5----7--7--7--7--7---------|

e|----------------------------------------------------------------------------|
B|----------------------------------------------------------------------------|
G|---13--13--13--13-/-14----11--11-/-13----9--9-/-11----8---------------------|
D|----x---x---x---x----x-----x---x----x----x--x----x----x---------------------|
A|---11--11--11--11-/-12-----9---9-/-11----7--7-/--9----6---------------------|
E|----------------------------------------------------------------------------|

e|---4--4--4--4--4----2--2--2--2--2----5--5--5--5--5----7--7--7--7--7---------|
B|---5--5--5--5--5----2--2--2--2--2----5--5--5--5--5----7--7--7--7--7---------|
G|---6--6--6--6--6----3--3--3--3--3----6--6--6--6--6----8--8--8--8--8---------|
D|---6--6--6--6--6----4--4--4--4--4----7--7--7--7--7----9--9--9--9--9---------|
A|---4--4--4--4--4----4--4--4--4--4----7--7--7--7--7----9--9--9--9--9---------|
E|---4--4--4--4--4----2--2--2--2--2----5--5--5--5--5----7--7--7--7--7---------|

e|----------------------------------------------------------------------------|
B|----------------------------------------------------------------------------|
G|---13--13--13--13-/-14----11--11-/-13----9--9-/-11----8---------------------|
D|----x---x---x---x----x-----x---x----x----x--x----x----x---------------------|
A|---11--11--11--11-/-12-----9---9-/-11----7--7-/--9----6---------------------|
E|----------------------------------------------------------------------------|

e|----------------------------------------------------------------------------|
B|----------------------------------------------------------------------------|
G|---9----9-/-11--8----4--4--6------------------------------------------------|
D|---x----x----x--x----x--x--x------------------------------------------------|
A|---7----7-/--9--6----2--2--4------------------------------------------------|
E|----------------------------------------------------------------------------|


Verse
Distorted
e|---0----x--x--x--2----2--x--x--5--x--x--x--7----7--x--x---------------------|
B|---0----x--x--x--2----2--x--x--5--x--x--x--7----7--x--x---------------------|
G|---1----x--x--x--3----3--x--x--6--x--x--x--8----8--x--x---------------------|
D|---2----x--x--x--4----4--x--x--7--x--x--x--9----9--x--x---------------------|
A|---2----x--x--x--4----4--x--x--7--x--x--x--9----9--x--x---------------------|
E|---0----x--x--x--2----2--x--x--5--x--x--x--7----7--x--x---------------------|

e|---0----x--x--x--2----2--x--x--5--x--x--x--7----7--x--x---------------------|
B|---0----x--x--x--2----2--x--x--5--x--x--x--7----7--x--x---------------------|
G|---1----x--x--x--3----3--x--x--6--x--x--x--8----8--x--x---------------------|
D|---2----x--x--x--4----4--x--x--7--x--x--x--9----9--x--x---------------------|
A|---2----x--x--x--4----4--x--x--7--x--x--x--9----9--x--x---------------------|
E|---0----x--x--x--2----2--x--x--5--x--x--x--7----7--x--x---------------------|

e|---0-/-2--2--2--2--2--2--0--0--x--x--5--x--x--x--7----7--x--x---------------|
B|---0-/-2--2--2--2--2--2--0--0--x--x--5--x--x--x--7----7--x--x---------------|
G|---1-/-3--3--3--3--3--3--1--1--x--x--6--x--x--x--8----8--x--x---------------|
D|---2-/-4--4--4--4--4--4--2--2--x--x--7--x--x--x--9----9--x--x---------------|
A|---2-/-4--4--4--4--4--4--2--2--x--x--7--x--x--x--9----9--x--x---------------|
E|---0-/-2--2--2--2--2--2--0--0--x--x--5--x--x--x--7----7--x--x---------------|

e|---0----x--x--x--2----2--x--x--5--x--x--x--7----7--x--x---------------------|
B|---0----x--x--x--2----2--x--x--5--x--x--x--7----7--x--x---------------------|
G|---1----x--x--x--3----3--x--x--6--x--x--x--8----8--x--x---------------------|
D|---2----x--x--x--4----4--x--x--7--x--x--x--9----9--x--x---------------------|
A|---2----x--x--x--4----4--x--x--7--x--x--x--9----9--x--x---------------------|
E|---0----x--x--x--2----2--x--x--5--x--x--x--7----7--x--x---------------------|

e|----------------------------------------------------------------------------|
B|----------------------------------------------------------------------------|
G|---9--9--9--9--9--9----11--11--11--11--11----13--13--13--13--13-/-18--------|
D|---x--x--x--x--x--x-----x---x---x---x---x-----x---x---x---x---x----x--------|
A|---7--7--7--7--7--7-----9---9---9---9---9----11--11--11--11--11-/-16--------|
E|----------------------------------------------------------------------------|


Chorus
Distorted
e|---4--4--4--4--4----2--2--2--2--2----5--5--5--5--5----7--7--7--7--7---------|
B|---5--5--5--5--5----2--2--2--2--2----5--5--5--5--5----7--7--7--7--7---------|
G|---6--6--6--6--6----3--3--3--3--3----6--6--6--6--6----8--8--8--8--8---------|
D|---6--6--6--6--6----4--4--4--4--4----7--7--7--7--7----9--9--9--9--9---------|
A|---4--4--4--4--4----4--4--4--4--4----7--7--7--7--7----9--9--9--9--9---------|
E|---4--4--4--4--4----2--2--2--2--2----5--5--5--5--5----7--7--7--7--7---------|

e|----------------------------------------------------------------------------|
B|----------------------------------------------------------------------------|
G|---13--13--13--13-/-14----11--11-/-13----9--9-/-11----8---------------------|
D|----x---x---x---x----x-----x---x----x----x--x----x----x---------------------|
A|---11--11--11--11-/-12-----9---9-/-11----7--7-/--9----6---------------------|
E|----------------------------------------------------------------------------|

e|---4--4--4--4--4----2--2--2--2--2----5--5--5--5--5----7--7--7--7--7---------|
B|---5--5--5--5--5----2--2--2--2--2----5--5--5--5--5----7--7--7--7--7---------|
G|---6--6--6--6--6----3--3--3--3--3----6--6--6--6--6----8--8--8--8--8---------|
D|---6--6--6--6--6----4--4--4--4--4----7--7--7--7--7----9--9--9--9--9---------|
A|---4--4--4--4--4----4--4--4--4--4----7--7--7--7--7----9--9--9--9--9---------|
E|---4--4--4--4--4----2--2--2--2--2----5--5--5--5--5----7--7--7--7--7---------|

e|----------------------------------------------------------------------------|
B|----------------------------------------------------------------------------|
G|---13--13--13--13-/-14----11--11-/-13----9--9-/-11----8---------------------|
D|----x---x---x---x----x-----x---x----x----x--x----x----x---------------------|
A|---11--11--11--11-/-12-----9---9-/-11----7--7-/--9----6---------------------|
E|----------------------------------------------------------------------------|

e|---4--4--4--4--4----2--2--2--2--2----5--5--5--5--5----7--7--7--7--7---------|
B|---5--5--5--5--5----2--2--2--2--2----5--5--5--5--5----7--7--7--7--7---------|
G|---6--6--6--6--6----3--3--3--3--3----6--6--6--6--6----8--8--8--8--8---------|
D|---6--6--6--6--6----4--4--4--4--4----7--7--7--7--7----9--9--9--9--9---------|
A|---4--4--4--4--4----4--4--4--4--4----7--7--7--7--7----9--9--9--9--9---------|
E|---4--4--4--4--4----2--2--2--2--2----5--5--5--5--5----7--7--7--7--7---------|x4

e|----------------------------------------------------------------------------|
B|----------------------------------------------------------------------------|
G|---9~----8~----7~----6~-----------------------------------------------------|
D|---x-----x-----x-----x------------------------------------------------------|
A|---7~----6~----5~----4~-----------------------------------------------------|
E|----------------------------------------------------------------------------|


Break
Clean
e|---4--x--4--4----5--x--5--5----2--x--2--2----4--x--4--4---------------------|
B|---5--x--5--5----5--x--5--5----2--x--2--2----5--x--5--5---------------------|
G|---6--x--6--6----6--x--6--6----3--x--3--3----6--x--6--6---------------------|
D|----------------------------------------------------------------------------|
A|----------------------------------------------------------------------------|
E|----------------------------------------------------------------------------|

e|---4--x--4--4----5--x--5--5----2--x--2--2----2--x--2--2---------------------|
B|---5--x--5--5----5--x--5--5----2--x--2--2----2--x--2--2---------------------|
G|---6--x--6--6----6--x--6--6----3--x--3--3----3--x--3--3---------------------|
D|----------------------------------------------------------------------------|
A|----------------------------------------------------------------------------|
E|----------------------------------------------------------------------------|

e|---4--x--4--4----5--x--5--5----2--x--2--2----4--x--4--4---------------------|
B|---5--x--5--5----5--x--5--5----2--x--2--2----5--x--5--5---------------------|
G|---6--x--6--6----6--x--6--6----3--x--3--3----6--x--6--6---------------------|
D|----------------------------------------------------------------------------|
A|----------------------------------------------------------------------------|
E|----------------------------------------------------------------------------|

e|---4--x--4--4----5--x--5--5----2--x--2--2----2--x--2--2---------------------|
B|---5--x--5--5----5--x--5--5----2--x--2--2----2--x--2--2---------------------|
G|---6--x--6--6----6--x--6--6----3--x--3--3----3--x--3--3---------------------|
D|----------------------------------------------------------------------------|
A|----------------------------------------------------------------------------|
E|----------------------------------------------------------------------------|

Distorted
e|----------------------------------------------------------------------------|
B|----------------------------------------------------------------------------|
G|---8--8--8--8--8----6--6--6--6--6----9--9--9--9--9----8--8--8--8--8---------|
D|---x--x--x--x--x----x--x--x--x--x----x--x--x--x--x----x--x--x--x--x---------|
A|---6--6--6--6--6----4--4--4--4--4----7--7--7--7--7----6--6--6--6--6---------|
E|----------------------------------------------------------------------------|

e|----------------------------------------------------------------------------|
B|----------------------------------------------------------------------------|
G|---8--8--8--8--8----6--6--6--6--6----9--9--9--9--9----9--9--9--9--9---------|
D|---x--x--x--x--x----x--x--x--x--x----x--x--x--x--x----x--x--x--x--x---------|
A|---6--6--6--6--6----4--4--4--4--4----7--7--7--7--7----7--7--7--7--7---------|
E|----------------------------------------------------------------------------|

e|----------------------------------------------------------------------------|
B|----------------------------------------------------------------------------|
G|---8--8--8--8--8----6--6--6--6--6----9--9--9--9--9----8--8--8--8--8---------|
D|---x--x--x--x--x----x--x--x--x--x----x--x--x--x--x----x--x--x--x--x---------|
A|---6--6--6--6--6----4--4--4--4--4----7--7--7--7--7----6--6--6--6--6---------|
E|----------------------------------------------------------------------------|

e|------------------------------------------4--4--4--4--4--4--4--4----4--4----|
B|------------------------------------------5--5--5--5--5--5--5--5----5--5----|
G|---8--8--8--8--8----11--11--11--11--11----6--6--6--6--6--6--6--6----6--6----|
D|---x--x--x--x--x-----x---x---x---x---x----6--6--6--6--6--6--6--6----6--6----|
A|---6--6--6--6--6-----9---9---9---9---9----4--4--4--4--4--4--4--4----4--4----|
E|------------------------------------------4--4--4--4--4--4--4--4----4--4----|

After Second Time Play:
e|-------------0----0--0----2--2--5--0----0-/-2-------------------------------|
B|-------------0----0--0----2--2--5--0----0-/-2-------------------------------|
G|-------------1----1--1----3--3--6--1----1-/-3---------------------9--11--8--|
D|-------------2----2--2----4--4--7--2----2-/-4---------------------x---x--x--|
A|-------------2----2--2----4--4--7--2----2-/-4---------------------7---9--6--|
E|---2h5--2h5--0----0--0----2--2--5--0----0-/-2-------------------------------|x2


Play This After Bass Break
e|---4-------4-----5-----4--------4-----5-----7-----7-------------------------|
B|----------------------------------------------------------------------------|
G|------6-------6-----6-----6--6-----6-----6-----6----------------------------|
D|----------------------------------------------------------------------------|
A|----------------------------------------------------------------------------|
E|----------------------------------------------------------------------------|

Last Chorus Same As Second Chorus, End On
e|---4--4--4--4--4----2--2--2--2--2-------------------------------------------|
B|---5--5--5--5--5----2--2--2--2--2-------------------------------------------|
G|---6--6--6--6--6----3--3--3--3--3-------------------------------------------|
D|---6--6--6--6--6----4--4--4--4--4-------------------------------------------|
A|---4--4--4--4--4----4--4--4--4--4-------------------------------------------|
E|---4--4--4--4--4----2--2--2--2--2-------------------------------------------|

The Ending Riff Should Be Something Along The Lines Of The Intro, I Just Didn't Feel
Like Tabbing It.