Afi — The Leaving Song

intro

E:-------------------------------------------------
B:-------------------------------------------------
G:-------------------------------------------------
D:-2-----------------------------------------------
A:-2-----------------------------------------------
E:-0-----------------------------------------------

verse

E:-------------------------------------------------
B:-------------------------------------------------
G:-------------------------------------------------
D:-2-----7---5-----2-------------------------------
A:-2-4-5-5-7-3-5-4-2-------------------------------
E:-0-2-3---5---3-2-0-------------------------------

chorus

E:-------------------------------------------------
B:-------------------------------------------------
G:-----2-------------------------------------------
D:-5-7-1-2-5---7-----------------------------------
A:-3-5-2-2-3-5-5-----------------------------------
E:-------0---3-------------------------------------


bridge

E:---------- -----------------------------------
B:---------- -----------------------------------
G:---------- -----------------------------------
D:-5-10-12-7 ---5------------5-4-0--------------
A:-7-9-----5 -5-7-------------------------------
E:---------- -7---------------------------------

Outro
e|----------------------------------------7-7h8p7-----|
B|--5-5-5/7--8h10p7-7-7h8-----12-10--8-10---------7---|
G|----------7-------------7h9-------------------------|
D|----------------------------------------------------|
A|----------------------------------------------------|
E|----------------------------------------------------|

e|--7----8-7--7-7----8-7-7--------|
B|---8------8--8--8-8-8-8--8------|
G|-----9------9----------9--------|
D|--------------------------------|
A|--------------------------------|
E|--------------------------------|