Afi — Three Seconds Notice

#----------------------------------PLEASE NOTE---------------------------------#
#This file is the author's own work and represents their interpretation of the-#
#song. You may only use this file for private study, scholarship, or research.-#
#------------------------------------------------------------------------------#

AFI - Three Seconds Notice
Submitted By: Sqweeky
EMail: Blindside831@aol.com
tabbed by ryanleeper96@hotmail.com

INTRO
e-|----------------------------------------------------------------------
B-|----------------------------------------------------------------------
G-|---9---12--7-7--------------------------------------------------------
D-|---9-7-12--7-7-7-7--9-9-9-9-10101010----------------------------------
A-|---7-7-10--5-5-7-7--9-9-9-9-10101010--5-7-8---------------------------
E-|-----5---------5-5--7-7-7-7--8-8-8-8----------------------------------

e-|----------------------------------------------------------------------
B-|----------------------------------------------------------------------
G-|---9---12--7-7--------------------------------------------------------
D-|---9-7-12--7-7-7-7--9-9-9-9-10101010----------------------------------
A-|---7-7-10--5-5-7-7--9-9-9-9-10101010--5-7-8---------------------------
E-|-----5---------5-5--7-7-7-7--8-8-8-8----------------------------------

e-|----------------------------------------------------------------------
B-|----------------------------------------------------------------------
G-|----------------------------------------------------------------------
D-|--------------------9-9-9-9-10101010----------------------------------
A-|--------------------9-9-9-9-10101010--7-8-10--------------------------
E-|--------------------7-7-7-7--8-8-8-8----------------------------------

e-|----------------------------------------------------------------------
B-|----------------------------------------------------------------------
G-|----------------------------------------------------------------------
D-|--------------------9-9-9-9-10101010----------------------------------
A-|--------------------9-9-9-9-10101010--5-7-8---------------------------
E-|--------------------7-7-7-7--8-8-8-8----------------------------------

e-|----------------------------------------------------------------------
B-|----------------------------------------------------------------------
G-|----------------------------------------------------------------------
D-|--------------------9-9-9-9-10101010----------------------------------
A-|--------------------9-9-9-9-10101010----------------------------------
E-|--------------------7-7-7-7--8-8-8-8----------------------------------

VERSE x4
e-|----------------------------------------------------------------------
B-|----------------------------------------------------------------------
G-|---9---12-12-12-12--7-7-----------------------------------------------
D-|---9-7-12-12-12-12--7-7-7-7-------------------------------------------
A-|---7-7-10-10-10-10--5-5-7-7-------------------------------------------
E-|-----5------------------5-5-------------------------------------------

CHORUS
e-|----------------------------------------------------------------------
B-|----------------------------------------------------------------------
G-|---------------10101010----12----------------10101010-12121212--------
D-|--9-9-9-9-7-9--10101010-10-12---9-9-9-9-7-9--10101010-12121212--------
A-|--9-9-9-9-7-9---8-8-8-8-10-10---9-9-9-9-7-9---8-8-8-8-10101010--------
E-|--7-7-7-7-5-7------------8------7-7-7-7-5-7---------------------------

e-|----------------------------------------------------------------------
B-|----------------------------------------------------------------------
G-|--9-9-9-9--12121212----9-9-9-9--12-10---------------------------------
D-|--9-9-9-9--12121212----9-9-9-9--12-10-10-12---------------------------
A-|--7-7-7-7--10101010----7-7-7-7--10--8-10-12---------------------------
E-|---------------------------------------8-10---------------------------

e-|----------------------------------------------------------------------
B-|----------------------------------------------------------------------
G-|--9-9-9-9--12121212---------12-10-------------------------------------
D-|--9-9-9-9--12121212----2-2--12-10-10-12-------------------------------
A-|--7-7-7-7--10101010----2-2--10--8-10-12-------------------------------
E-|-----------------------0-0---------8-10-------------------------------