Afi — Two Of A Kind

Artist / Band - A.F.I.
Album - Answer That & Stay Fashionable
Track Number - 01
Track Name - Two Of A Kind
Tabber - Keith Fusco
Email Address - keith_fusco_the_offspring_fan@hotmail.com
Web Page - http://koro.20m.com

This is a cool song by A.F.I. so I decided to tab it out for everyone to play.
I'm in the middle of tabbing out all every A.F.I. song so keep an eye out for
them. Please email your comments and any corrections, Or if you think any of
the lyrics are wrong, Or if you want to request A tab email me and i'll try
my best to tab it and email it to you as soon as possible.

Legend:

p - Pull Off
pm - Palm Muted
* - Let Ring
- Slide Down Neck
/ - Slide Up neck

Standard Tuning (E,A,D,G,B,E)

Intro

E |--------------------------------------------------------------------|
B |--------------------------------------------------------------------|
G |-7-7--7--7-7-7-7--7----------------------10-10--10--10-10-10-10--10-|
D |-7-7--7--7-7-7-7--7--5-5--5--5-5-5-5--5--10-10--10--10-10-10-10--10-|
A |-5-5--5--5-5-5-5--5--5-5--5--5-5-5-5--5---8--8---8---8--8--8--8---8-|
E |---------------------3-3--3--3-3-3-3--3-----------------------------|
|pm-| |---pm--| |pm-| |---pm--| |--pm-| |-----pm----|

E |---------------------------|
B |---------------------------|
G |---------------------------|
D |-8-8-8--8--10-10-10-10--10-|
A |-8-8-8--8--10-10-10-10--10-|
E |-6-6-6--6---8--8--8--8---8-|
|-pm--| |----pm-----|

E |--------------------------------------------------------------------|
B |--------------------------------------------------------------------|
G |-7-7--7--7-7-7-7--7----------------------10-10--10--10-10-10-10--10-|
D |-7-7--7--7-7-7-7--7--5-5--5--5-5-5-5--5--10-10--10--10-10-10-10--10-|
A |-5-5--5--5-5-5-5--5--5-5--5--5-5-5-5--5---8--8---8---8--8--8--8---8-|
E |---------------------3-3--3--3-3-3-3--3-----------------------------|
|pm-| |---pm--| |pm-| |---pm--| |--pm-| |-----pm----|

E |------------------|
B |------------------|
G |-8-8-8-8--7-7-7-7-|
D |-8-8-8-8--7-7-7-7-|
A |-6-6-6-6--5-5-5-5-|
E |------------------|

Verse

E |---------------------------------------------------------------------|
B |---------------------------------------------------------------------|
G |-7-7-7-7---------7-7-7-7---------7-7-7-7-----------------10-10-10-10-|
D |-7-7-7-7-5-5-5-5-7-7-7-7-7-7-8-8-7-7-7-7-5-5-5-5-8-8-8-8-10-10-10-10-|
A |-5-5-5-5-5-5-5-5-5-5-5-5-7-7-8-8-5-5-5-5-5-5-5-5-8-8-8-8--8--8--8--8-|
E |---------3-3-3-3---------5-5-6-6---------3-3-3-3-6-6-6-6-------------|

E |---------------------------------------------------------------------|
B |---------------------------------------------------------------------|
G |-7-7-7-7---------7-7-7-7---------7-7-7-7-----------------10-10-10-10-|
D |-7-7-7-7-5-5-5-5-7-7-7-7-7-7-8-8-7-7-7-7-5-5-5-5-8-8-8-8-10-10-10-10-|
A |-5-5-5-5-5-5-5-5-5-5-5-5-7-7-8-8-5-5-5-5-5-5-5-5-8-8-8-8--8--8--8--8-|
E |---------3-3-3-3---------5-5-6-6---------3-3-3-3-6-6-6-6-------------|

Chorus

E |---------------------------------------------------------------------------|
B |---------------------------------------------------------------------------|
G |-7-7-7-7-7-7-7-7-------------------10-10-10-10-10-10-10-10-----------------|
D |-7-7-7-7-7-7-7-7--5-5-5-5-5-5-5-5--10-10-10-10-10-10-10-10--8-8-8-8--10-10-|
A |-5-5-5-5-5-5-5-5--5-5-5-5-5-5-5-5---8--8--8--8--8--8--8--8--8-8-8-8--10-10-|
E |------------------3-3-3-3-3-3-3-3---------------------------6-6-6-6---8--8-|

E |---------------------------------------------------------------------|
B |---------------------------------------------------------------------|
G |-----------7-7-7-7-7-7-7-7-------------------10-10-10-10-10-10-10-10-|
D |-10-10-10--7-7-7-7-7-7-7-7--5-5-5-5-5-5-5-5--10-10-10-10-10-10-10-10-|
A |-10-10-10--5-5-5-5-5-5-5-5--5-5-5-5-5-5-5-5---8--8--8--8--8--8--8--8-|
E |--8--8--8-------------------3-3-3-3-3-3-3-3--------------------------|

E |------------------|
B |------------------|
G |-8-8-8-8--7-7-7-7-|
D |-8-8-8-8--7-7-7-7-|
A |-6-6-6-6--5-5-5-5-|
E |------------------|

Verse

E |---------------------------------------------------------------------|
B |---------------------------------------------------------------------|
G |-7-7-7-7---------7-7-7-7---------7-7-7-7-----------------10-10-10-10-|
D |-7-7-7-7-5-5-5-5-7-7-7-7-7-7-8-8-7-7-7-7-5-5-5-5-8-8-8-8-10-10-10-10-|
A |-5-5-5-5-5-5-5-5-5-5-5-5-7-7-8-8-5-5-5-5-5-5-5-5-8-8-8-8--8--8--8--8-|
E |---------3-3-3-3---------5-5-6-6---------3-3-3-3-6-6-6-6-------------|

E |---------------------------------------------------------------------|
B |---------------------------------------------------------------------|
G |-7-7-7-7---------7-7-7-7---------7-7-7-7-----------------10-10-10-10-|
D |-7-7-7-7-5-5-5-5-7-7-7-7-7-7-8-8-7-7-7-7-5-5-5-5-8-8-8-8-10-10-10-10-|
A |-5-5-5-5-5-5-5-5-5-5-5-5-7-7-8-8-5-5-5-5-5-5-5-5-8-8-8-8--8--8--8--8-|
E |---------3-3-3-3---------5-5-6-6---------3-3-3-3-6-6-6-6-------------|

Chorus

E |---------------------------------------------------------------------------|
B |---------------------------------------------------------------------------|
G |-7-7-7-7-7-7-7-7-------------------10-10-10-10-10-10-10-10-----------------|
D |-7-7-7-7-7-7-7-7--5-5-5-5-5-5-5-5--10-10-10-10-10-10-10-10--8-8-8-8--10-10-|
A |-5-5-5-5-5-5-5-5--5-5-5-5-5-5-5-5---8--8--8--8--8--8--8--8--8-8-8-8--10-10-|
E |------------------3-3-3-3-3-3-3-3---------------------------6-6-6-6---8--8-|

E |---------------------------------------------------------------------|
B |---------------------------------------------------------------------|
G |-----------7-7-7-7-7-7-7-7-------------------10-10-10-10-10-10-10-10-|
D |-10-10-10--7-7-7-7-7-7-7-7--5-5-5-5-5-5-5-5--10-10-10-10-10-10-10-10-|
A |-10-10-10--5-5-5-5-5-5-5-5--5-5-5-5-5-5-5-5---8--8--8--8--8--8--8--8-|
E |--8--8--8-------------------3-3-3-3-3-3-3-3--------------------------|

E |------------------|
B |------------------|
G |-8-8-8-8--7-7-7-7-|
D |-8-8-8-8--7-7-7-7-|
A |-6-6-6-6--5-5-5-5-|
E |------------------|

Bridge

E |--------------------------------------------------------------------|
B |--------------------------------------------------------------------|
G |-7-7--7--7-7-7-7--7----------------------10-10--10--10-10-10-10--10-|
D |-7-7--7--7-7-7-7--7--8-8--8--8-8-8-8--8--10-10--10--10-10-10-10--10-|
A |-5-5--5--5-5-5-5--5--8-8--8--8-8-8-8--8---8--8---8---8--8--8--8---8-|
E |---------------------6-6--6--6-6-6-6--6-----------------------------|
|pm-| |---pm--| |pm-| |---pm--| |--pm-| |-----pm----|

E |--------------------------|
B |--------------------------|
G |-12-12-12-12--14-14-14-14-|
D |--x--x--x--x---x--x--x--x-|
A |-10-10-10-10--12-12-12-12-|
E |--------------------------|

E |--------------------------------------------------------------------|
B |--------------------------------------------------------------------|
G |-7-7--7--7-7-7-7--7----------------------10-10--10--10-10-10-10--10-|
D |-7-7--7--7-7-7-7--7--8-8--8--8-8-8-8--8--10-10--10--10-10-10-10--10-|
A |-5-5--5--5-5-5-5--5--8-8--8--8-8-8-8--8---8--8---8---8--8--8--8---8-|
E |---------------------6-6--6--6-6-6-6--6-----------------------------|
|pm-| |---pm--| |pm-| |---pm--| |--pm-| |-----pm----|

E |--------------------------|
B |--------------------------|
G |-14-14-14-14--12-12-12-12-|
D |--x--x--x--x---x--x--x--x-|
A |-12-12-12-12--10-10-10-10-|
E |--------------------------|

Chorus

E |---------------------------------------------------------------------------|
B |---------------------------------------------------------------------------|
G |-7-7-7-7-7-7-7-7-------------------10-10-10-10-10-10-10-10-----------------|
D |-7-7-7-7-7-7-7-7--5-5-5-5-5-5-5-5--10-10-10-10-10-10-10-10--8-8-8-8--10-10-|
A |-5-5-5-5-5-5-5-5--5-5-5-5-5-5-5-5---8--8--8--8--8--8--8--8--8-8-8-8--10-10-|
E |------------------3-3-3-3-3-3-3-3---------------------------6-6-6-6---8--8-|

E |---------------------------------------------------------------------|
B |---------------------------------------------------------------------|
G |-----------7-7-7-7-7-7-7-7-------------------10-10-10-10-10-10-10-10-|
D |-10-10-10--7-7-7-7-7-7-7-7--5-5-5-5-5-5-5-5--10-10-10-10-10-10-10-10-|
A |-10-10-10--5-5-5-5-5-5-5-5--5-5-5-5-5-5-5-5---8--8--8--8--8--8--8--8-|
E |--8--8--8-------------------3-3-3-3-3-3-3-3--------------------------|

E |------------------|
B |------------------|
G |-8-8-8-8--7-7-7-7-|
D |-8-8-8-8--7-7-7-7-|
A |-6-6-6-6--5-5-5-5-|
E |------------------|

Outro

E |----------------------------------------------------------------------|
B |----------------------------------------------------------------------|
G |-7-7-7-7-7-7-7-7-------------------10-10-10-10-10-10-10-10--8--7-/-8-|
D |-7-7-7-7-7-7-7-7--5-5-5-5-5-5-5-5--10-10-10-10-10-10-10-10--8--7-/-8-|
A |-5-5-5-5-5-5-5-5--5-5-5-5-5-5-5-5---8--8--8--8--8--8--8--8--6--5-/-6-|
E |------------------3-3-3-3-3-3-3-3-------------------------------------|

E |-----------------------------------------------------------------|
B |-----------------------------------------------------------------|
G |-7-7-7-7-7-7-7-7-------------------10-10-10-10-10-10-10-10-/-12p-|
D |-7-7-7-7-7-7-7-7--5-5-5-5-5-5-5-5--10-10-10-10-10-10-10-10-/-12p-|
A |-5-5-5-5-5-5-5-5--5-5-5-5-5-5-5-5---8--8--8--8--8--8--8--8-/-10p-|
E |------------------3-3-3-3-3-3-3-3--------------------------------|

Lyrics:

Hangin' Out And Lingerin' Round
Cause You Know Where I'll Be Found
And I Don't Know How You Do It
This Obsession I Must Admit
Has Shaken Me Up Abit
My Solidarity Now Only Comes In Pairs

I'd Like To See You
Before You See Me
I'd Like To See You
I'd Like To See You Leave

Showered By Torrential Praise
Why It Is I Can't Explain
Attempts To Leave Yield No Avail
For Me I Don't Know What's In Store
All I Want Is Nothing More
I Don't Deserve What I Get
I Have Nothing To Return

I'd Like To See You
Before You See Me
I'd Like To See You
I'd Like To See You Leave

I'd Like To See You
Before You See Me
I'd Like To See You
I'd Like To See You Leave