Afroman — Colt 45

This work was completely original and done by myself.
It is only for study purposes and/or fun.

This is the main bass part for Colt 45
G------------------------------------
D------------------------------------
A-----------0--2-----2--2--0---------
E--0--2--3--------0-----------3--2--0

G------------------------------------
D------------------------------------
A-----------0--2-----2--2--0---------
E--0--2--3--------0-----------3--2--0


This bass riff just repeats through the whole song
email with correction roach_boy@hotmail.com