Afroman — Crazy Rap

На этой странице Вы можете ознакомиться с 3 версиями подбора аккордов для гитары к песне "Crazy Rap" группы (исполнителя) "Afroman".

tabs: afroman
song: crazy rap
tabbed by: richard shearer

e |-------------------------------------------------------
B |-------------------------------------------------------
G |-------------------------------------------------------
D |--------------5r7-7-5-7--------------------------------
A |---------5-7-------------------------------------------
E |--5-7-8------------------------------------------------


sometimes the bass part goes a little bit different in the end:

e |-------------------------------------------------------
B |-------------------------------------------------------
G |-------------------------------------------------------
D |---------5-3-2-0---------------------------------------
A |-------------------------------------------------------
E |-------------------------------------------------------

the whole song goes like this.
if u have any comments write to: richardshearer@katamail.com
tabs: afroman
song: she won't let me...
tabbed by: richard shearer

it's a real easy song and it's based ion 2 simple chords, G and C

goes like this:
G
she won't let me fuck
C
she won't let me fuck...

the whole song goes like this.
if u have any comments write to: richardshearer@katamail.com
Author/Artist: Afroman
Title: Crazy Rap
Album: ??
Transcribed by: Richard Armstrong
Email: Hydromaniac@hotmail.com

I'm not a big fan of Afroman but this song is really funny and I love the guitar line so
here it is. NB: Rhythm isn't shown and this tab doesn't print very well

0:15
e|----------------------------------------------------------------------------------------|
B|----------------------------------------------------------------------------------------|
G|-9-7-5-7-5---5--------------------------------5-5-----------5h7-9b-9b-7-5-7-5-------5---|
D|-----------7---7-5----------------------5-5h7-----7-----5h7-------------------7-5-7---7-|
A|-------------------7-5------------5-5h7-------------------------------------------------|
E|-----------------------8-5--------------------------------------------------------------|

e|---------------------------------------------------------------------------------------|
B|---------------------------------------------------------------------------------------|
G|----5h7-9p7----------9p7p5-7-5-------5--------------------5-7-9b-9b-7-5-7-5------------|
D|5h7----------------------------7-5-7---7--------------5h7------------------------------|
A|---------------------------------------------------------------------------------------|
E|---------------------------------------------------------------------------------------|


0:37
e|-5-xxxxxx-5--|
B|-5-xxxxxx-5--|
G|-5-xxxxxx-5--| keep playing the chord with 6 muted ones
D|-------------| in between until the versestarts at 1:15
A|-------------|
E|-------------|


1:15
e|--------------------55-5-------------------------------------------------------55-5----|
B|--------------------55-5-------------------------------------------------------55-5----|
G|--------------------55-5---------------------5h7-9p7-7-5-----------------------55-5----|
D|5-5-5-5-5-5-5-5-5h7------5-5-5-5-5-5-5-5-5h7-------------7-5-5-5-5-5-5-5-5-5h7---------|
A|---------------------------------------------------------------------------------------|
E|---------------------------------------------------------------------------------------|

e|----------------------5-xxxxxx-5--|
B|----------------------5-xxxxxx-5--|
G|----------------------5-xxxxxx-5--| keep playing the chord with 6 muted ones
D|5-5-5-5-5-5-5-5-5h7---------------| in between until 1:45
A|----------------------------------|
E|----------------------------------|


1:45
e|---------------------------------------------------------------------------------------|
B|---------------------------------------------------------------------------------------|
G|--------------------9p7-5-5---------------------9p7-7-5--------------------------------|
D|5-5-5-5-5-5-5-5-5h7---------5-5-5-5-5-5-5-5-5h7---------7p5h7p5h7----------------------|
A|---------------------------------------------------------------------------------------|
E|---------------------------------------------------------------------------------------|


1:58
e|---------------------------------------------------------------------------------------|
B|---------------------------------------------------------------------------------------|
G|9p7p5-7-5-------5---5----------------9-7-5-7-5-5---------------------------------------|
D|----------7p5h7---7------------------------------7-------------------------------------|
A|---------------------------------------------------------------------------------------|
E|---------------------------------------------------------------------------------------|


2:08
e|---------------------------------------------------------------------------------------|
B|---------------------------------------------------------------------------------------|
G|----5------------------9b-9b-7-5-7-5---------------------------------------------------|
D|5-7---7--------------------------------------------------------------------------------|
A|---------------------------------------------------------------------------------------|
E|---------------------------------------------------------------------------------------|


2:14
e|-5-xxxxxx-5--|
B|-5-xxxxxx-5--|
G|-5-xxxxxx-5--| keep playing the chord with 6 muted ones in between until the end of
D|-------------| the song. There are some changes eg rests but nothing worth tabbing.
A|-------------|
E|-------------|
End