After Forever — Intrinsic

#----------------------------------PLEASE NOTE---------------------------------#
#This file is the author's own work and represents their interpretation of the #
#song. You may only use this file for private study, scholarship, or research. #
#------------------------------------------------------------------------------#

Band: After Forever
Album: Decipher
Song: Intrinsic
Tabbed by: Martijn Wietsma
Email: dalvanian@yahoo.com
Date: 01-09-2002

Tune down to D
h = hammer
p = pick
/ = forward slide
= backward slide
~ = tremolo
. = palm mute

Riff A (keyboard part on the guitar)
d|--------------------------------------------------------|
A|--------------------------------------------------------|
F|--------------------------------------------------------|
C|-1--6---84--3----(15x)----1-----1----------------------|
G|------------------------------4-------------------------|
D|--------------------------------------------------------|

Riff B (1:05)
d|--------------------------------------------------------|
A|--------------------------------------------------------|
F|----------------------------------6~--------------------|
C|-3--8--5/6p-3-----2--3---8-5/6/8------------------------|
G|---------------4----------------------------------------|
D|--------------------------------------------------------|
(1x)
Riff C (acoustic part under riff A)
d|--------------------------------------------------------|
A|--------------------------------------------------------|
F|-----8-------9----------8-------6-----------------------|
C|---8-------9---9------8------6----6---------------------|
G|-6------7----------6-------4----------------------------|
D|--------------------------------------5-----------------|
(5x)
Riff D (other acoustic part is missing)

repeat riff C 6x

repeat riff A 4x

Riff E
d|--------------------------------------------------------|
A|--------------------------------------------------------|
F|----------------------------------6-5-------------------|
C|-3--8--5/6p-3-----2--3---8-5/6/8-------83--------------|
G|---------------4----------------------------------------|
D|--------------------------------------------------------|
(3x)

Riff F (another acoustic part)
d|--------------------------------------------------------|
A|--------------------------------------------------------|
F|-----------------------------10-------------------------|
C|----8-------8--------10-8-------------------------------|
G|------8-------8------------8----------------------------|
D|-6------6--------6--------------------------------------|
(2x)
Riff G
d|--------------------------------------------------------|
A|--------------------------------------------------------|
F|--------------------------------------------------------|
C|-6--------6--------5--------5--------3--------3--------5
G|-4-4-4--4-4-4-4--4-3-3-3--3-3-3-3--3-1-1-1--1-1-1-1--1-3|
D|--------------------------------------------------------|
. . . . . . . . . . . . . . . . . .
d|--------------------------------------------------------|
A|--------------------------------------------------------|
F|--------------------------------------------------------|
C|-----4-----2--------------------------------------------|
G|-0-0---0-0---0-0--5-------------------------------------|
D|--------------------------------------------------------|
. . . . . .

d|--------------------------------------------------------|
A|--------------------------------------------------------|
F|--------------------------------------------------------|
C|-6--------6--------5--------5--------3--------3--------5
G|-4-4-4--4-4-4-4--4-3-3-3--3-3-3-3--3-1-1-1--1-1-1-1--1-3|
D|--------------------------------------------------------|
. . . . . . . . . . . . . . . . . .

d|--------------------------------------------------------|
A|--------------------------------------------------------|
F|--------------------------------------------------------|
C|-----6-----8--------------------------------------------|
G|-3-3-4-4-4-6--------------------------------------------|
D|--------------------------------------------------------|
. . . . (2x)

Repeat G 1x

Riff H
d|--------------------------------------------------------|
A|--------------------------------------------------------|
F|--------------------------------------------------------|
C|-6-6--6--6-6-6--6--6--6-6-6-----------------------------|
G|-4-4--4--4-4-4--4--4--4-4-4-----------------------------|
D|--------------------------------------------------------|
. . .
(4x)
d|--------------------------------------------------------|
A|--------------------------------------------------------|
F|--------------------------------------------------------|
C|--------------------------------------------------------|
G|-5-5--5--5-5-5--5--5--5-5-5-----------------------------|
D|-3-3--3--3-3-3--3--3--3-3-3-----------------------------|
. . .
(4x)
Riff I
d|--------------------------------------------------------|
A|--------------------------------------------------------|
F|--------------------------------------------------------|
C|--------------------------------------------------------|
G|-----4-------4-----3-----1----1------1---4---4---3---1--|
D|-1-1----1-1-----1-----1----1-------1---1---1---1---1----|
. . . . . . . . . . . .

d|--------------------------------------------------------|
A|--------------------------------------------------------|
F|--------------------------------------------------------|
C|----------------------------------4-----4-----3----1-1--|
G|-----4------4-----3----1-----1------1-1---1-1---1-------|
D|-1-1---1-1-----1----1-----1-----------------------------|
. . . . . . . . . . . .

Riff J
d|--------------------------------------------------------|
A|--------------------------------------------------------|
F|--------------------------------------------------------|
C|---------------------------4-----4-----3----1-1---------|
G|-----------------------------1-1---1-1---1--------------|
D|-3-3--3-3--3-3--3-3--(3x)-------------------------------|
. . . . . . . . . . . . .

Repeat riff I 1x
Repeat riff E 2x
Repeat riff G 1x
Repeat riff H 4x, part 2 of H 2x