After Forever — Monolith Of Doubt

#----------------------------------PLEASE NOTE---------------------------------#
#This file is the author's own work and represents their interpretation of the #
#song. You may only use this file for private study, scholarship, or research. #
#------------------------------------------------------------------------------#

Band: After Forever
Album: Decipher
Song: Monolith of Doubt
Tabbed by: Martijn Wietsma
Email: dalvanian@yahoo.com
Date: 01-09-2002

Tune down to D
. = palm mute
h = hammer
p = pick
/ = forward slide
= backward slide
~ = tremolo

Riff A
d|------------------------------------------------------------|
A|------------------------------------------------------------|
F|------------------------------------------------------------|
C|-8---------8-8---------9---8-8-------4---------4-4----------|
G|-6-6-6-6-6-6-6-6-6-6-6-7-7-6-6-6-6-6-2-2-2-2-2-2-2-2-2-2-2--|
D|------------------------------------------------------------|
. . . . . . . . . . . . . . . . . . . .

d|------------------------------------------------------------|
A|------------------------------------------------------------|
F|------------------------------------------------------------|
C|-3-3-4-4--4-4-4---------------------------------------------|
G|-1-1-2-2--2-2-2---------------------------------------------|
D|------------------------------------------------------------|
. . . (1x)

Riff B
d|------------------------------------------------------------|
A|------------------------------------------------------------|
F|------------------------------------------------------------|
C|-8---8-8---9---8-8---4---4-4---3---3-3~---------------------|
G|-6-6-6-6-6-7-7-6-6-6-2-2-2-2-2-1-1-1-1----------------------|
D|------------------------------------------------------------|
. . . . . . . (2x)

Riff C
d|------------------------------------------------------------|
A|------------------------------------------------------------|
F|------------------------------------------------------------|
C|----6-------8----8------6-------8h9p8p6---------------------|
G|-4--4----4--6------0-0-----0-0------------------------------|
D|------------------------------------------------------------|
. . . . . . (2x)

Repeat riff A 1x
Repeat riff B 1x
Repeat riff C 2x

Riff D (keyboard part)
d|------------------------------------------------------------|
A|------------------------------------------------------------|
F|------------------------------------------------------------|
C|--------9---------8---------6---------6---------------------|
G|-6-6-6-----6-6-6-----6-6-6-----6-6-6------------------------|
D|------------------------------------------------------------|
. . . . . . . . . . . .

d|------------------------------------------------------------|
A|------------------------------------------------------------|
F|------------------------------------------------------------|
C|--------9---------8---------6---8h9p8p6---------------------|
G|-6-6-6-----6-6-6-----6-6-6----------------------------------|
D|------------------------------------------------------------|
. . . . . . . . . (2x)

Riff E
d|------------------------------------------------------------|
A|------------------------------------------------------------|
F|------------------------------------------------------------|
C|-6--7--4h6------7--9--7p6-----------------------------------|
G|------------------------------------------------------------|
D|------------------------------------------------------------|

Repeat riff D (same riff, only now for guitar)

Riff F
d|------------------------------------------------------------|
A|------------------------------------------------------------|
F|------------------------------------------------------------|
C|-4----------------------------------------------------------|
G|-2---7--4----4----------------------------------------------|
D|-----5--2----2----------------------------------------------|

Keyboard part

Riff G
d|------------------------------------------------------------|
A|------------------------------------------------------------|
F|------------------------------------------------------------|
C|-11----10----6----8-----------------------------------------|
G|--9-----8----4----6-----------------------------------------|
D|------------------------------------------------------------|

Riff H
d|------------------------------------------------------------|
A|------------------------------------------------------------|
F|------------------------------------------------------------|
C|-8-8-8-8------------4-4-4-4---11--10------------------------|
G|-6-6-6-6--8h9/11----2-2-2-2----9---8------------------------|
D|------------------------------------------------------------|

Riff I
d|------------------------------------------------------------|
A|------------------------------------------------------------|
F|------------------------------------------------------------|
C|------------------------------------------------------------|
G|-8-8-8--8-8-8--8--8-9---------------------------------------|
D|------------------------------------------------------------|
. . . . . . . . . (2x)

Riff J
d|------------------------------------------------------------|
A|------------------------------------------------------------|
F|------------------------------------------------------------|
C|-8--6-6-6--4-4-4--2-2-2--1----------------------------------|
G|------------------------------------------------------------|
D|------------------------------------------------------------|
. . . . . . . . . .

d|------------------------------------------------------------|
A|------------------------------------------------------------|
F|------------------------------------------------------------|
C|-8--6-6-6--4-4-4--2-2-2--1----------------------------------|
G|------------------------------------------------------------|
D|------------------------------------------------------------|
. . . . . . . . .

Riff K
d|------------------------------------------------------------|
A|------------------------------------------------------------|
F|------------------------------------------------------------|
C|-2-------------------------3--------------------------------|
G|-0--0-0-0--0-0-0--0-0-0-0--1--1-1-1--1-1-1--1-1-1-1---------|
D|------------------------------------------------------------|
. . . . . . . . . . . . . . . . . . . . (2x)

Riff L
d|------------------------------------------------------------|
A|------------------------------------------------------------|
F|------------------------------------------------------------|
C|-7--7----8-7----9-------------------------------------------|
G|-5--5----6-5----7-------------------------------------------|
D|------------------------------------------------------------|

Repeat riff A 2x
Repeat riff B 2x

Riff M
d|------------------------------------------------------------|
A|------------------------------------------------------------|
F|------------------------------------------------------------|
C|------------------------------------------------------------|
G|-8-8-8-8-8--8-8-8-8-8--8--8h9-------------------------------|
D|------------------------------------------------------------|
. . . . . . . . . . . . . (2x)