Against All Authority — 12 00 Am

12:00 A.M.
Against All Authority
All Fall Down
chris - majorrocky@earthlink.net


VERSE

G:------------------------------------------
D:------------------------------------------
A:-2>-0>-0--2-222-0>-0--2>-0>-0--2-222-0>-0-
E:------0-----------0--------0-----------0--
(I THINK THIS IS RIGHT)

PRE-CHORUS

G:------------------------
D:---0>-2>-(0-2-0)--------
A:-2>-------------2>--0>--
E:------------------0>----
()- NOT ABSOLUTELY SHURE

CHORUS

G:-------------------------------------------------------------------
D:-------0-----2-0-------0-----2-0-------0-----2-0-------------------
A:-2-2-2---0-0-----2-2-2---0-0-----2-2-2---0-0------2>-0-0-0-0-0-0-0-
E:-------------------------------------------------------------------