Against All Authority — Centerfold

Centerfold
Against All Authority
Destroy What Destroys You
chris-(you know the address!)

VERSE

G:-----------------
D:-----------------
A:-----4-4-----4-4-
E:-4-4-----2-2----- X6

PRE-CHORUS

G:--------------------
D:--------------------
A:----4-4-4-4-6-6-6-6-
E:-4>----------------- X2

CHORUS

G:-----------------
D:-----------------
A:-----4-4-----4-4-
E:-4-4-----2-2----- X4
(SAME AS VERSE)

ORDER

REPEAT AS NECCESSARY