Against All Authority — Lifestyle Of Rebellion

Lifestyle Of Rebellion
Against All Authority
Destroy What Destroys You
chris- majorrocky@earthlink.net

VERSE

G:----------------
D:----------------
A:-5>-2>-0>----5>-
E:----------3>---- X2

CHORUS

G:---------------------
D:---------------------
A:-5-0---5-0>----0>-5>-
E:-----3------3>------- X2

PRE-BRIDGE THING THAT I DONT KNOW(REAL SHORT)

BRIDGE

G:------------------------------------------
D:-----------5-6-7-7-7----------------------
A:5--5-5-5-5-----------5--5-5-5-5-----------
E:--------------------------------3-4-5-5-5- X2

ORDER

VERSE
CHORUS
PRE-BRIDGE
BRIDGE
VERSE
CHORUS
PRE-BRIDGE
BRIDGE
VERSE