Against All Authority — Ska Sucks

На этой странице Вы можете ознакомиться с 3 версиями подбора аккордов для гитары к песне "Ska Sucks" группы (исполнителя) "Against All Authority".

Song: Ska Sucks

Band: AAA

Album: Ska Sucks

tabbed by:Adam Thomas LVPZ83C@prodigy.com





The intro goes like this



G:---------------------------------------------------------------

D:--0-0-4-0-0-0-4h5p4-----------------------------------------

A:----------------------------2----------4-----------------------

E:------------------------3-3---3--5-5----5---------------------



When the horns come in do this



G:---------------------------------------------------------------

D:--0-4-5-7-0-4-5-7-------------------------------------------

A:-----------------------2-3-5----4-5-7------------------------

E:---------------------3---------5-------------------------------



It ends something like this



G:---------------------------------------------------------------

D:---------------------------------------------------------------

A:---5-5-5-5-5-------------------------------------------------

E:---------------3-3-5-3-5--------------------------------------



Obviously some stuff repeats here and there

sorry if anything is wrong. It sounds right to me
Song: Ska Sucks

Band: AAA

Album: Ska Sucks

tabbed by:Adam Thomas LVPZ83C@prodigy.com

The intro goes like this

G:---------------------------------------------------------------

D:--0-0-4-0-0-0-4h5p4-----------------------------------------

A:----------------------------2----------4-----------------------

E:------------------------3-3---3--5-5----5---------------------

When the horns come in do this

G:---------------------------------------------------------------

D:--0-4-5-7-0-4-5-7-------------------------------------------

A:-----------------------2-3-5----4-5-7------------------------

E:---------------------3---------5-------------------------------

It ends something like this

G:---------------------------------------------------------------

D:---------------------------------------------------------------

A:---5-5-5-5-5-------------------------------------------------

E:---------------3-3-5-3-5--------------------------------------

Obviously some stuff repeats here and there

sorry if anything is wrong. It sounds right to me
Submitted by Jelle Visser

With this song the guitar plays the ska chords with distortion. It's very important thet
the gitaar plays short chords so on the 1 2 3 4 you mute the guitar with your palm of
your hand.
This is the hole song, not 100% right maybe but you get the idea.
x = palm mute
/ = slide down
1 2 3 4 = the counting of a messure

Intro bass
G----------------------
D----------------------
A-555595510/-----------
E-------------33735595- repeat hole song

ha....
1 2 3 4 1 2 3 4
E---------------------
Bx7x7x7x7x12x12x141414
Gx7x7x7x7x12x12x141414
Dx7x7x7x7x12x12x141414
A---------------------
E---------------------
E---------------------

1 2 3 4 1 2 3 4

E---------------------
Bx7x7x7x7x12x12x14xxxx
Gx7x7x7x7x12x12x14xxxx
Dx7x7x7x7x12x12x14xxxx
A---------------------
E---------------------



ska sucks.....

1 2 3 4 1 2 3 4
E---------------------
Bx7x7x7x7x12x12x141414
Gx7x7x7x7x12x12x141414
Dx7x7x7x7x12x12x141414
A---------------------
E--------------------- 8 times


1 2 3 4 1 2 3 4
xxxxxx x x x x x x x x
E-------------------------
B7777777/12121212-14141414
G777777--12121212-14141414
D777777--12121212-14141414
A-------------------------
E------------------------- 8 times

fuck you....
(here you don't mute anymore)
1 2 3 4 1 2 3 4
E---------------------
B-7-7-7-7-12-12-141414
G-7-7-7-7-12-12-141414
D-7-7-7-7-12-12-141414
A---------------------
E--------------------- 7 times
1 2 3 4 1 2 3 4
E---------------------
B-7-7-7-7-----------10
G-7-7-7-7-------------
D-7-7-7-7-12-14-12----
A-----------------12--
E---------------------

That's it!!!
Have fun!!

submit comments please!!