Against All Authority — The Excuse

На этой странице Вы можете ознакомиться с 2 версиями подбора аккордов для гитары к песне "The Excuse" группы (исполнителя) "Against All Authority".

-------------------------------------------------------------------------------
THE EXCUSE - Against All Authority
-------------------------------------------------------------------------------

By:I_Wanna_Riot@nazipunksfuckoff.com (bob)

INTRO / CHORUS
G|---------------------------------------------------------------------------|
D|---------------------------------------------------------------------------|
A|------3-2-2-----2-1-1------------------------------------------------------|
E|--1-2-------1-2------------------------------------------------------------|

VERSE (play part before stars 3 times)
G|-------------------*-------------------------------------------------------|
D|-------------------*-------------------------------------------------------|
A|--------------3-3--*----------1-1-1-1--------------------------------------|
E|--1-1-1-1-2-2------*--4-4-4-4----------------------------------------------|

PRE-CHORUS (palm mute the last 2 chords the 2nd time)
e|---------------------------------------------------------------------------|
B|---------------------------------------------------------------------------|
G|---------------------------------------------------------------------------|
D|---------------------------------------------------------------------------|
A|--3-3-3-3-4-4-4-4----------------------------------------------------------|
E|------------------2-2-2-2-4-4-4-4------------------------------------------|
-------------------------------------------------------------------------------
THE EXCUSE - Against All Authority
-------------------------------------------------------------------------------

By:I_Wanna_Riot@nazipunksfuckoff.com (bob)

INTRO / CHORUS
G|---------------------------------------------------------------------------|
D|---------------------------------------------------------------------------|
A|------3-2-2-----2-1-1------------------------------------------------------|
E|--1-2-------1-2------------------------------------------------------------|

VERSE (play part before stars 3 times)
G|-------------------*-------------------------------------------------------|
D|-------------------*-------------------------------------------------------|
A|--------------3-3--*----------1-1-1-1--------------------------------------|
E|--1-1-1-1-2-2------*--4-4-4-4----------------------------------------------|

PRE-CHORUS (palm mute the last 2 chords the 2nd time)
e|---------------------------------------------------------------------------|
B|---------------------------------------------------------------------------|
G|---------------------------------------------------------------------------|
D|---------------------------------------------------------------------------|
A|--3-3-3-3-4-4-4-4----------------------------------------------------------|
E|------------------2-2-2-2-4-4-4-4------------------------------------------|