Against All Authority — Ugly Desires

-------------------------------------------------------------------------------
UGLY DESIRES - Against All Authority
-------------------------------------------------------------------------------

By: I_Wanna_Riot@nazipunksfuckoff.com (bob)

INTRO
G|---------------------------------------------------------------------------|
D|---------------------------------------------------------------------------|
A|------------------6-6-6-6-5-5-5-5-----------------6-----5-6-5--------------|
E|--5-5-5-5-5-5-5-5-----------------5-5-5-5-5-5-5-5---6-5--------------------|

VERSE
G|--------------------------------------------------------------------|
D|--------------------------------------------------------------------|
A|------------------3-3-3-3-------6-5---------------------------------|
E|--5-5-5-5-5-5-5-5---------3-3-3-------------------------------------|

VERSE cont.
G|------------------------------------------------------------------------|
D|------------------------------------------------------------------------|
A|------------------3-3-3-3-----------------------------------------------|
E|--5-5-5-5-5-5-5-5---------3-3-3-3---------------------------------------|

CHORUS
G|---------------------------------------------------------------------------|
D|---------------------------------------------------------------------------|
A|----6-5---6-5---6----------------------------------------------------------|
E|--5-----5-----5---3-3-3----------------------------------------------------|

BRIDGE
G|---------------------------------------------------------------------------|
D|---------------------------------------------------------------------------|
A|--------------------3------------------------3-----------------------------|
E|--5-5-5-5-5-5-3-3-3---3--5-5-5-5-5-5-6-6-6-3---3---------------------------|