Against Me — Those Anarcho Punks Are Mysterious

Against Me! - Those Anarcho Punks Are Mysterious...

Album: Reinventing Axl Rose
Tabbed by: Lloyd Wilson
Email: lloydw73@hotmail.com

Tuning: Standard

Intro (Emphasize the last 4 strings)

F#m
e|--2--2--2--2--|
B|--2--2--2--2--|
G|--2--2--2--2--|
D|--4--4--4--4--|
A|--4--4--4--4--|
E|--2--2--2--2--|


Verse (Other guitar just playing power chords, slightly distorted)

F#m D A E F#m D A E
e|--2---5---5---0--|--2---5---5---0--|
B|--2---7---5---0--|--2---7---5---0--|
G|--2---7---6---1--|--2---7---6---1--|
D|--4---7---7---2--|--4---7---7---2--|
A|--4---5---7---2--|--4---5---7---2--|
E|--2-------5---0--|--2-------5---0--|

E F#E D F#m E F#E D F#m
e|--0-------5---2--2--2--2--|--0-------5---2--2--2--2--|
B|--0-------7---2--2--2--2--|--0-------7---2--2--2--2--|
G|--1-------7---2--2--2--2--|--1-------7---2--2--2--2--|
D|--2---4-2-7---4--4--4--4--|--2---4-2-7---4--4--4--4--|
A|--2---4-2-5---4--4--4--4--|--2---4-2-5---4--4--4--4--|
E|--0---2-0-----2--2--2--2--|--0---2-0-----2--2--2--2--|

E D A
e|--0---0---5---5--|-5-|
B|--0---0---7---7--|-5-|
G|--1---1---7---7--|-6-|
D|--2---2---7---7--|-7-|
A|--2---2---5---5--|-7-|
E|--0---0----------|-5-|

:And we rock, because it's us against them. We found our own reasons to sing.
And it's so much less confusing when lines are drawn like that,
When people are either...

...consumers or revolutionaries

F#m D A E
e|--2---5---5---0--|
B|--2---7---5---0--|
G|--2---7---6---1--|
D|--4---7---7---2--|
A|--4---5---7---2--|
E|--2-------5---0--|

E F#E D F#m E F#E D F#m
e|--0-------5---2--2--2--2--|--0-------5---2--2--2--2--|
B|--0-------7---2--2--2--2--|--0-------7---2--2--2--2--|
G|--1-------7---2--2--2--2--|--1-------7---2--2--2--2--|
D|--2---4-2-7---4--4--4--4--|--2---4-2-7---4--4--4--4--|
A|--2---4-2-5---4--4--4--4--|--2---4-2-5---4--4--4--4--|
E|--0---2-0-----2--2--2--2--|--0---2-0-----2--2--2--2--|

E D E F#m D E
e|--0---0---5---5--|--0---0---2---5---0---0--|
B|--0---0---7---7--|--0---0---2---7---0---0--|
G|--1---1---7---7--|--1---1---2---7---1---1--|
D|--2---2---7---7--|--2---2---4---7---2---2--|
A|--2---2---5---5--|--2---2---4---5---2---2--|
E|--0---0----------|--0---0---2-------0---0--|


Outro

F#m A E
e|--2--2--2--2--5----------|
B|--2--2--2--2--5----------|
G|--2--2--2--2--6-------9--|
D|--4--4--4--4--7-------9--|
A|--4--4--4--4--7-------7--|
E|--2--2--2--2--5---5h7----|


*E can be replaced with x79987. Whatever you want.


| / slide up
| slide down
| h hammer-on
| p pull-off
| ~ vibrato
| + harmonic
| x Mute note
===============================================================================