Age Of Electric — Enya

song: enya
artist: the age of electric
cd: the age of electric
tabbed out by rachel

because of the pitiful lack of decent
bass tabs, and especially for canadian
bands, i decided to contribute my own.
enjoy.

verse
------------------------------------------
--2-2-----------5-2-2------------5
------4-4--0-2--------4-4--0-2---
-----------------------------------------
you play that a bunch of times,
if you have the cd you'll know
when to change.

chorus
---------------------------------------------
---------------------------------------------
---------------------------------------------
--0-0--3-3--5-5-5-5-5-5-5-5-5---
play this until the chorus ends.

bridge
-------------------------------------------------
-----------------------2----------------------2
--4-4--2-2--0-2----4-4---2-2--0-2----
-------------------------------------------------
this is essentially the same as the
verse, in a lower key. it has the
same timing. play this a few times,
and then switch back to the verse.


questions??comments??hatemail??lovemail??
email me pez_dispenser66@hotmail.com

______________________________________________________
Get Your Private, Free Email at http://www.hotmail.com