Age Of Electric — Exist To Resist

Exist To Resist-Age Of Electric
Tabbed by Yerp
rhergott@bserv.com email me any comments or questions.
Tuning: E A D G

Intro:
G|-------------------------|
D|-------------------------|
A|-5-7---8-7---5-7---8-7---|
E|-----7-----7-----7-----7-|

Riff 1
(The first time, start the riff on the F# instead of the G)
G|-----------------------------------------------|
D|-----------------------------------------------|
A|-----------------------------------------------|
E|-33333-00-33-00-33-00-3-22222-00-22-00-22-00-2-|

Riff 2a-Chorus
G|-----------------------------------|
D|-----------------------------------|
A|-----3---3-5-3-2-------------0-0-3-|
E|-3-3---3---------0-0-2-2-3-3-------|

Riff 2b
G|-----------------------------------|
D|-----------------------------------|
A|-----3---3-5-3-2-----0-0-2-2-5-5-3-|
E|-3-3---3---------3-3---------------|

Play Riff 1 and the chorus.

Then play:

G|-----------------
D|-----------------
A|-------------0-0-
E|-0-0-2-2-3-3-----

G|---------------------------------------------------------------
D|------------------22222-000------------------222222222-0000000-
A|-2222222222222222-----------2222222222222222-------------------
E|---------------------------------------------------------------

G|-----------------------------------------------------
D|-----------------------------------------------------
A|-------------------333333333333333-------------------
E|-00000000-33333333-----------------00000000-33333333-

G|---------------------------------|
D|---------------------------------|
A|-3333333---3333333---3333333---3-|
E|---------3---------3---------3---|

Then just play Riffs 2a and b until the end.