Age Of Electric — Mad At The World

Mad At the World-The Age Of Electric
Tabbed by Yerp
rhergott@bserv.com email me with any questions or comments.
Tuning: E A D G

X=mute note


Riff 1
G|--------------------------------------------|
D|---------------2-3-5-----------33-2-3-2-3-2-|
A|-3333333333333------000000000---------------|
E|--------------------------------------------|

Sometimes instead of just C's (3 on A) play this with varied rhythm:
G|-------|
D|-------|
A|-3-5-3-|
E|-------|

Play that for a while.

Chorus- Riff 2
G|-----------------------------------|
D|-333-1-----------------------------|
A|-------11111111111/555-------------|
E|-----------------------33333333333-|

Play it sometimes with this fill:
G|------------------------------------|
D|-3-1-3-1----------------------------|
A|---------1111111111/555-------------|
E|------------------------33333333333-|

Repeat the pattern, and at the end of the chorus play:

Riff 4
G|-------|
D|-------|
A|---1-3-|
E|-3-----|

Then play riff 1 a bit more and skip to this:
G|----------------------------------|
D|----------------------------------|
A|----------------------------------|
E|-3-0-3-0-3-0-3-0-1-0-1-0-1-0-1-0X-|

Play Riff 2 a bunch and then play Riff 3 to the end gradually slowing down and fading out.